Charlie Brown Jr.

Me Encontra

121 reproducciones
Tono: E Afinación: Eb Ab Db Gb Bb Eb
Intro:

C#m7  E  A9  2x

C#m  E5  A9  2x

1
   C#m7

E|-0--0--0--0--0--0--0----------------------|
B|-0--0--0--0--0--0--0----------------------|
G|-x--x--x--x--x--x--x----------------------|
D|-11-11-11-11-11-11-11---------------------|
A|-11-11-11-11-11-11-11---------------------|
E|-9--9--9--9--9--9--9----------------------|


2
   E

E|-0--0--0--0--0--0--0----------------------|
B|-0--0--0--0--0--0--0----------------------|
G|-13-13-13-13-13-13-13-x-x-----------------|
D|-14-14-14-14-14-14-14-x-x-----------------|
A|-11-11-11-11-11-11-11-x-x-----------------|
E|-0--0--0--0--0--0--0--x-x-----------------|


3
   A9

E|-0-0-0-0-0--------------------------------|
B|-0-0-0-0-0--------------------------------|
G|-6-6-6-6-6--------------------------------|
D|-7-7-7-7-7--------------------------------|
A|-7-7-7-7-7--------------------------------|
E|-5-5-5-5-5--------------------------------|



4

E|---------0--0--0---0--0--0---0---0---0----|
B|---------0--0--0---0--0--0---0---0---0----|
G|-x--x-x--16-16-16--14-14-14--13--13--13---|
D|-x--x-x-----------------------------------|
A|-x--x-x--14-14-14--12-12-12--11--11--11---|
E|-0--0-0-----------------------------------|



5
   C#m

E|-0-------0----0---------------------------|
B|-5-------5----5---/-----------------------|
G|-6-—6-6--6--6-6--6/-----------------------|
D|-6-—6-6--6--6-6--6/-----------------------|
A|-4-—4-4--4--4-4--4/-----------------------|
E|------------------------------------------|


6
   E5

E|----0-------0----x-x----------------------|
B|----0-------0----x-x----------------------|
G|-9--9--9-9--9--9-9-9----------------------|
D|-9--9--9-9--9--9-9-9----------------------|
A|-7--7--7-7--7--7-7-7----------------------|
E|------------------------------------------|



7
   A9

E|-0-------0----0------0-------0-----x-x----|
B|-0-------0----0------0-------0-----x-x----|
G|-4--4-4--4--4-4---4--4-------4-----4-4----|
D|-2--2-2--2--2-2---2--2--2-2--2--2--2-2----|
A|-0--0-0--0--0-0---0--0--0-0--0--0--0-0----|
E|------------------------------------------|



Primeira Parte:

 C#m7                       E
Hoje eu vou sair pra encontrar o amor
       A9
Que espero há tanto tempo

E ainda não rolou
   C#m7
O vento diz que é hoje 
           E
Em meio à multidão
        A9
Que eu vou encontrar a dona 

Do meu coração


Segunda Parte:

    C#m   E5
Aí sempre
 A9
Sorrir e chorar e ter alguém

Preu compartilhar
 C#m   E5
Sempre
   A9
Viver para alguém que me ama e dividir
 C#m   E5
Sempre
   A7M(9)
Felicidade e amor

Então


Refrão:

      C#m   E5     B11               A9
Me encontra    ou deixa eu te encontrar
      C#m   E5     B11               A9
Me encontra    ou deixa eu te encontrar
     
      C#m   E5     B11               A9
Me encontra    ou deixa eu te encontrar
      C#m   E5     B11               A9
Me encontra    ou deixa eu te encontrar

C#m  E5      A9
         Ou deixa eu te encontrar

C#m  E5  A



Repete a Primeira Parte:


C#m7  E  A9  2x

C#m7                 E
     Eu não conheço todas as flores
A9
   Mas vou mandar todas que eu puder
C#m7                    E
     Vivemos tempos de loucos amores
A9
   Só é feliz quem sabe o que quer



Repete o Refrão:

      C#m   E5     B11               A9
Me encontra    ou deixa eu te encontrar
      C#m   E5     B11               A9
Me encontra    ou deixa eu te encontrar
     
      C#m   E5     B11               A9
Me encontra    ou deixa eu te encontrar
      C#m   E5     B11               A9
Me encontra    ou deixa eu te encontrar


Terceira Parte:

C#9  A9

        E7M
Camisa 10 joga bola até na chuva

Eu não tô envolvido

Mas meu papo não faz curva

C#9  A9  E7M


Quarta Parte:


1

   C#m7

E|------------------------------------------|
B|------------------------------------------|
G|-----------------/16-16-16-14-14-14-13-13-|
D|-11------11-------------------------------|
A|-11------11------/14-14-14-12-12-12-11-11-|
E|-9--9-9--9--0-0---------------------------|


2

   B4

E|------------------------------------------|
B|------------------------------------------|
G|-----------------/14-14-14-13-13-13-9--9--|
D|-9-------9--------------------------------|
A|-9-------9-------/12-12-12-11-11-11-7--7--|
E|-7--7-7--7--0-0---------------------------|



C#m7
     Fico pensando onde está você
        B4
E se você estaria pensando 

Em me encontrar
      C#m7
Como sou, onde estou 

E onde quero chegar
      B4
Como sou, como é que vai ser

E onde vou te levar
     C#m7
Mas se você me ver, pode acenar pra mim
 B4
Já pensou que louco te encontrar assim
           C#m7
Eu vou na boa, vou na fé

Sei que vou te encontrar
    B4
E quando eu te encontrar 

Nós vamos comemorar


Refrão Final:

      C#m   E5     B11               A9
Me encontra    ou deixa eu te encontrar
      C#m   E5     B11               A9
Me encontra    ou deixa eu te encontrar
     
      C#m   E5     B11               A9
Me encontra    ou deixa eu te encontrar
      C#m   E5     B11               A9
Me encontra    ou deixa eu te encontrar
      C#m
Te encontra
    Composición: Chorão / Thiago CastanhoColaboración y revision:
    • gustavofofao
    • Pedro Kronbauer

    Comentarios 18

    140 .
    • Philipe Philipe: Em 25/11/2015 13:55

      legal parabéns cara .....faz uma video aula do chralie brwon da musica (o preço ) por favor mano!

    • rafael_zete rafael_zete: Em 17/11/2015 20:09

      Faz da guitarraaaa por favor !

    • pinguin pinguin: Em 16/11/2015 21:45

      Fofão, você é fera! Parabéns e muito obrigado!

    • João Marcos João Marcos: Em 16/11/2015 19:55

      Aleluia Cifra club! Música boa!

    • Diego Diego: Em 16/11/2015 17:20

      Muda só a batida galera essa batida ai n encaixou mto... Mas fofão ainda toca mtoooo

    • Guilherme Guilherme: Em 15/11/2015 09:26

      FOODA

    • Lucas Lucas: Em 08/11/2015 04:10

      Vídeo aula para guitarra, por favor.

    • Matheus Matheus: Em 05/07/2015 01:04

      Genteeeeee faz a video aula por favor

    • joaovictor.viana.5817 joaovictor.viana.5817: Em 15/05/2015 16:12

      vídeo aula por favor

    • Rodrigo Rodrigo: Em 12/05/2015 11:12

      Vídeo aula para violão!

    140 cancelar

    ¿conseguiste tocar?

    • Kaique
    • felipegeda
    • Gustavo Barbosa
    • evandro.mazer
    • Wallace
    • Lucas Ford
    • Juliana
    • •••
    0:00 / 0:00
    1 versão de contrabajo reproducciones contribuición y correción
    2 versões de Guitar Proformatodownloadscontribuición
    play/pausefechar subir/bajar velocidad
    6ª cuerda E5ª cuerda A4ª cuerda D3ª cuerda G2ª cuerda B1ª cuerda E
      acordes
      versão revisada gustavofofao instrutor de guitarra
      publicidad
      cerrar
      ok