Gonzaguinha

Asa Branca

240 reproducciones
Tono: A
(intro)



E|---1---0------------------------------------------------------------|
B|-----3---1-3-0-1---0------------------------------------------------|
G|-----------------2---0-2-0---0-0------------------------------------|
D|---------------------------2----------------------------------------|
A|--------------------------------------------------------------------|
E|--------------------------------------------------------------------|


E|---1---0------------------------------------------------------------|
B|-----3---1-3-0-1---0------------------------------------------------|
G|-----------------2---0-2-0---0-0------------------------------------|
D|---------------------------2----------------------------------------|
A|--------------------------------------------------------------------|
E|--------------------------------------------------------------------|


E|--------------------------------------------------------------------|
B|-----2-5-5-2-3-3------2-5-5-3-2-----2-5-3-2--3-2-----2--------------|
G|-2-4--------------2-4-----------2-4---------2----4-4---4-4-2-2------|
D|--------------------------------------------------------------------|
A|--------------------------------------------------------------------|
E|--------------------------------------------------------------------|


E|---1---0------------------------------------------------------------|
B|-----3---1-3-0-1---0------------------------------------------------|
G|-----------------2---0-2-0---0-0------------------------------------|
D|---------------------------2----------------------------------------|
A|--------------------------------------------------------------------|
E|--------------------------------------------------------------------|




         A             D              A    E      A
Quando oiei a terra ardeno com'a fogueira de são joão
          A7               D              E          A
(Eu pergunte-ei a Deus do céu ai porque tamanha judiação)  (repete)



E|---1---0------------------------------------------------------------|
B|-----3---1-3-0-1---0------------------------------------------------|
G|-----------------2---0-2-0---0-0------------------------------------|
D|---------------------------2----------------------------------------|
A|--------------------------------------------------------------------|
E|--------------------------------------------------------------------|



                    D           A    E     A
Qui braseio que fornaia nem um pé de prantação
            A7               D              E          A
(por farta d'água perdi meu gado morreu de sede meu alazão)(repete)



E|---1---0------------------------------------------------------------|
B|-----3---1-3-0-1---0------------------------------------------------|
G|-----------------2---0-2-0---0-0------------------------------------|
D|---------------------------2----------------------------------------|
A|--------------------------------------------------------------------|
E|--------------------------------------------------------------------|



                   D            A  E     A
inté mesmo a asa branca bateu asas do sertão
            A7          D                 E           A
(entonce'eu disse adeus rosinha guarda contigo meu coração)(repete)



E|---1---0------------------------------------------------------------|
B|-----3---1-3-0-1---0------------------------------------------------|
G|-----------------2---0-2-0---0-0------------------------------------|
D|---------------------------2----------------------------------------|
A|--------------------------------------------------------------------|
E|--------------------------------------------------------------------|



                    D           A    E   A
hoje longe muitas léguas numa triste solidão
            A7           D             E               A
(espero a chuva cair de novo pra mim vortá pro meu sertão)(repete)



E|---1---0------------------------------------------------------------|
B|-----3---1-3-0-1---0------------------------------------------------|
G|-----------------2---0-2-0---0-0------------------------------------|
D|---------------------------2----------------------------------------|
A|--------------------------------------------------------------------|
E|--------------------------------------------------------------------|



                        D          A
Quando o verde dos teus oios se espaiá na prantação
            A7             D                    E              A
(eu te asseguro não chores não viu que eu voltarei-ei viu meu coração)(repete)



E|---1---0------------------------------------------------------------|
B|-----3---1-3-0-1---0------------------------------------------------|
G|-----------------2---0-2-0---0-0------------------------------------|
D|---------------------------2------------4p5~~-----------------------|
A|--------------------------------------------------------------------|
E|--------------------------------------------------------------------|
    Composición: Luiz Gonzaga / Humberto TeixeiraColaboración y revision:
    • Phillipe S.
    • nick.angel.9484
    • alineliraa
    • gui
    • John
    • +1

    Comentarios 10

    140 .
    140 cancelar

    ¿conseguiste tocar?

    • •••

    covers

    ¡Grave un vídeo tocando Asa Branca y envie para nosotros!

    Ex.: http://www.youtube.com/watch?v=0IvSvIwGdwk
    ver cover de otras canciones »
    0:00 / 0:00

    Capitulos

      3 versões de guitarra eléctrica dificuldad reproducciones contribuición y correción
      1 versão de armónica reproducciones contribuición y correción
      1 versão de Guitar Proformatodownloadscontribuición
      1 versão de partiturasformatodownloadscontribuición
      play/pausefechar subir/bajar velocidad
      6ª cuerda E5ª cuerda A4ª cuerda D3ª cuerda G2ª cuerda B1ª cuerda E
        acordes
        publicidad
        cerrar
        ok