Imagine

John Lennon

Composición: Hugh Martin / John Lennon / John Lennon / Paul McCartney / Ralph Blane
Tono: C
(intro 2x)

     C/G         C7M F
E|------------------------------------------|
B|-------------0--------------------0-------|
G|-0---0---0---0---2---2---2---2-3----------|
D|-2---2---2-----2-3---3---3----------------|
A|-3-3---3---3-3---3-3---3---3--------------|
E|-3---------------1------------------------|


(1ª parte - mesmo dedilhado da intro):
C/G                 C7M   F
   Imagine there's no heaven
C/G              C7M  F
   It's easy if you try
C/G         C7M  F
   No hell below us
C/G          C7M    F
    Above us only sky

(refrão)
F          C/E          Dm7   F/C
   Imagine all the people
 G            G7
Living for today a-hah

(1ª parte - variação I):
C/G                 C7M     F
   Imagine there's no countries
C/G               C7M  F
   It isn't hard to do
C/G                C7M F
   Nothing to kill or die for
 C/G           C7M   F
   And no religion too

F          C/E          Dm7   F/C
   Imagine all the people
    G              G7
   Living life in peace yu-huh

(2ª parte)
F           G          C      C7M  E  E7
   You may say I'm a dreamer
F           G               C  C7M  E  E7
   But I'm not the only one
F              G          C      C7M  E  E7
   I hope someday you'll join us
F           G          C
   And the world will be as one

(passagem e variação do dedilhado da 1ª parte)

                 C
E|------------------------------------------|
B|-------------1---1---1---0----------------|
G|-------------0---0---0---0----------------|
D|-------------2-2---2---2---2--------------|
A|---3---3---3-3---3---3---3----------------|
E|-3---5---7--------------------------------|


(1ª parte - variação II)
C              C7M   F
   Imagine no possessions
C/G             C7M F
   I wonder if you can
C/G                  C7M    F
   No need for greed or hunger
C/G              C7M    F
   A brotherhood of man

F          C/E          Dm7   F/C
   Imagine all the people
  G              G7
Sharing all the world yu-huh

F           G          C      C7M  E  E7
   You may say I'm a dreamer
F           G               C  C7M  E  E7
   But I'm not the only one
F              G          C      C7M  E  E7
   I hope someday you'll join us
F           G          C
   And the world will live as one
Página 1 / 1

Letras y titulo
Acordes y artista

restablecer los ajustes
variar acorde