Papa Roach

Last Resort

4.675 reproducciones
Tono: G
(Afinação: D  A  D  G  B  E)

Introdução:

Cut my life into pieces

This is my last resort
E5              D5
   Suffocation,    no breathing
 C5
Don't give a fuck if 
   B5          D5
I cut my arm bleeding

E5  D5  C5

            B5     D5
This is my last resort

E5  D5  C5  B5  D5

Riff 1:


E|-----------------------------------------------------|
B|-----------------------------------------------------|
G|-----------------------------------------------------|
D|-----------9--------------------9--------------------|
A|-7-10-9-10---10-9-10----10-9-10---10-9-10------------|
E|---------------------12------------------------------|


E|-----------------------------------------------------|
B|-----------------------------------------------------|
G|-----------------------------------------------------|
D|------------9-------------------9--------------------|
A|----10-9-10---10-9-10---10-9-10---10-9-10------------|
E|-10-------------------9------------------------------|



Primeira Estrofe:

E5                   D5
   Cut my life into pieces
      C5
I've reached my last resort
      B5          D5
Suffocation, no breathing
E5
   Don't give a fuck
      D5
If I cut my arm bleeding
C5                  B5
   Do you even care   
            D5
If I died bleeding?
E5
   Would it be wrong
             D5
Would it be right
      C5
If I took my life tonight
  B5          D5
Chances are that I might
E5                    D5
   Mutilation out of sight
         C5                   B5  D5
And I'm contemplating suicide

Primeiro Refrão:


   E5
E|------------------------------------------|
B|------------------------------------------|
G|------------------------------------------|
D|-14-14-14-14-14-14-14-12------------------|
A|-14-14-14-14-14-14-14-12------------------|
E|-14-14-14-14-14-14-14-12------------------|


   C5
E|------------------------------------------|
B|------------------------------------------|
G|------------------------------------------|
D|-10-10-10-10-10-10-10-10------------------|
A|-10-10-10-10-10-10-10-10------------------|
E|-10-10-10-10-10-10-10-10------------------|


   D5
E|------------------------------------------|
B|------------------------------------------|
G|-11-11-11-11-12-12-12-12------------------|
D|------------------------------------------|
A|--9--9--9--9-10-10-10-10------------------|
E|--0--0--0--0--0--0--0--0------------------|


E|------------------------------------------|
B|------------------------------------------|
G|-14-14-14-14-11-11-11-11------------------|
D|------------------------------------------|
A|-12-12-12-12--9--9--9--9------------------|
E|--0--0--0--0--0--0--0--0------------------|


            E5
'Cause I'm losing my sight
 C5
Losing my mind
 D5
Wish somebody would tell me I'm fine
 E5
Losing my sight
 C5
Losing my mind
 D5
Wish somebody would tell me I'm fine

E5  D5  C5  B5  D5


Segunda Estrofe:

E5
   I never realized 
         D5
I was spread too thin
     C5
Till it was too late and 
      B5           D5
I was empty within    hungry
E5                       D5
   Feeding on chaos and living in sin
 C5                       B5   D5
Downward spiral, where do I begin
E5                        D5
   It all started when I lost my mother
    C5
No love for myself 
        B5              D5
And no love for another
          E5
Searching   
                       D5
to find a love upon a higher level
        C5
Finding   
                           B5    D5
Nothing but questions and devils


Segundo Refrão:

            E5
'Cause I'm losing my sight
 C5
Losing my mind
 D5
Wish somebody would tell me I'm fine
 E5
Losing my sight
 C5
Losing my mind
 D5
Wish somebody would tell me I'm fine


   E5
E|------------------------------------------|
B|------------------------------------------|
G|------------------------------------------|
D|-14-14-14-14-14-14-14-12------------------|
A|-14-14-14-14-14-14-14-12------------------|
E|-14-14-14-14-14-14-14-12------------------|


   C5
E|------------------------------------------|
B|------------------------------------------|
G|------------------------------------------|
D|-10-10-10-10-10-10-10-10------------------|
A|-10-10-10-10-10-10-10-10------------------|
E|-10-10-10-10-10-10-10-10------------------|


   G5
E|------------------------------------------|
B|------------------------------------------|
G|------------------------------------------|
D|-5-5-5-5-5-5-5-7--------------------------|
A|-5-5-5-5-5-5-5-7--------------------------|
E|-5-5-5-5-5-5-5-7--------------------------|


   B5
E|------------------------------------------|
B|------------------------------------------|
G|------------------------------------------|
D|-9-9-9-9-9-9-9-9--------------------------|
A|-9-9-9-9-9-9-9-9--------------------------|
E|-9-9-9-9-9-9-9-9--------------------------|


 E5          C5     G5         B5
Nothing's alright, nothing is fine
E5      C5               G5   B5
   I'm running and I'm crying


   E5
E|------------------------------------------|
B|------------------------------------------|
G|------------------------------------------|
D|-14-14-14-14-14-14-14---------------------|
A|-14-14-14-14-14-14-14---------------------|
E|-14-14-14-14-14-14-14---------------------|


   G5
E|------------------------------------------|
B|------------------------------------------|
G|------------------------------------------|
D|-5-5-5-5-5-5-5----------------------------|
A|-5-5-5-5-5-5-5----------------------------|
E|-5-5-5-5-5-5-5----------------------------|


   C5
E|------------------------------------------|
B|------------------------------------------|
G|------------------------------------------|
D|-10-10-10-10-10-10-10---------------------|
A|-10-10-10-10-10-10-10---------------------|
E|-10-10-10-10-10-10-10---------------------|


   B5
E|------------------------------------------|
B|------------------------------------------|
G|------------------------------------------|
D|-9-9-9-12-9-9-9---------------------------|
A|-9-9-9-12-9-9-9---------------------------|
E|-9-9-9-12-9-9-9---------------------------|


E5       G5   C5
   I'm crying
      B5   E5
I'm crying
      G5   C5
I'm crying
      B5
I'm crying


Ponte:

E5   D5       C5    B5  D5
   I    can't    go     on 
E5    D5      C5      B5  D5
   Li____ving    this    way

Terceira Estrofe:

E5             D5
   Cut my life into pieces
C5             B5     D5
   This is my last resort
E5              D5
   Suffocation,    no breathing
 C5                     B5          D5
Don't give a fuck if I cut my arm bleeding
E5                                 D5
   Would it be wrong, would it be right
      C5
If I took my life tonight
  B5          D5
Chances are that I might
E5                    D5
   Mutilation out of sight
         C5               B5  D5
And I'm contemplating suicide


Terceiro Refrão:

            E5
'Cause I'm losing my sight
 C5
Losing my mind
 D5
Wish somebody would tell me I'm fine
 E5
Losing my sight
 C5
Losing my mind
 D5
Wish somebody would tell me I'm fine

 E5          C5     G5         B5
Nothing's alright, nothing is fine
E5      C5               G5   B5
   I'm running and I'm crying

E5  C5    D5
I  can't go  are 
 E5  C5    D5
Li__ving this way


   E5
E|------------------------------------------|
B|------------------------------------------|
G|------------------------------------------|
D|-14-14-14-14-14-14-14-12------------------|
A|-14-14-14-14-14-14-14-12------------------|
E|-14-14-14-14-14-14-14-12------------------|


   C5
E|------------------------------------------|
B|------------------------------------------|
G|------------------------------------------|
D|-10-10-10-10-10-10-10-10------------------|
A|-10-10-10-10-10-10-10-10------------------|
E|-10-10-10-10-10-10-10-10------------------|


  P.M. . . . . . .

E|------------------------------------------|
B|------------------------------------------|
G|------------------------------------------|
D|-0-0-0-0-0-0-0-0--------------------------|
A|-0-0-0-0-0-0-0-0--------------------------|
E|-0-0-0-0-0-0-0-0--------------------------|


   E5
E|------------------------------------------|
B|------------------------------------------|
G|------------------------------------------|
D|-2-2-2-2-2-2-2-2--------------------------|
A|-2-2-2-2-2-2-2-2--------------------------|
E|-2-2-2-2-2-2-2-2--------------------------|


   C5
E|------------------------------------------|
B|------------------------------------------|
G|------------------------------------------|
D|-10-10-10-10-10-10-10-10------------------|
A|-10-10-10-10-10-10-10-10------------------|
E|-10-10-10-10-10-10-10-10------------------|


   D5
E|------------------------------------------|
B|------------------------------------------|
G|-11-11-11-11-12-12-12-12------------------|
D|------------------------------------------|
A|--9--9--9--9-10-10-10-10------------------|
E|--0--0--0--0--0--0--0--0------------------|


E|------------------------------------------|
B|------------------------------------------|
G|-14-14-14-14-11-11-11-11------------------|
D|------------------------------------------|
A|-12-12-12-12--9--9--9--9------------------|
E|--0--0--0--0--0--0--0--0------------------|


E5  C5  D5  E5  C5

 D5
Can't go on
E5  C5  D5
       Living this way
E5  C5  D5          E5
       Nothing's alright
    Composición: Papa RoachColaboración y revision:
    • v.inny
    • john_liberato

    Comentarios 5

    140 .
    140 cancelar

    ¿conseguiste tocar?

    • marcelo.felix.589100
    • caio.alexandre.75873708
    • Igor
    • Wily
    • Marco
    • paulofla12
    • vinyhendrix
    • •••
    Julio195 visualizações
      ver cover de otras canciones »
      0:00 / 0:00
      3 versões de guitarra dificuldad reproducciones contribuición y correción
      3 versões de guitarra eléctrica dificuldad reproducciones contribuición y correción
      3 versões de cavaco dificuldad reproducciones contribuición y correción
      3 versões de teclado dificuldad reproducciones contribuición y correción
      4 versões de contrabajo reproducciones contribuición y correción
      1 versão de batería reproducciones contribuición y correción
      play/pausefechar subir/bajar velocidad
      6ª cuerda E5ª cuerda A4ª cuerda D3ª cuerda G2ª cuerda B1ª cuerda E
        acordes
        versão revisada v.inny instrutor de guitarra eléctrica
        publicidad
        cerrar
        ok