Yesterday

The Beatles

Composición: John Lennon / Paul McCartney
Tono: G
(afinação 1 tom abaixo)

E|--> D
A|--> G
D|--> C
G|--> F
B|--> A
E|--> D

(intro)

  G
E|---3-3-3---3-3-3---3-3-3---3-3-3----------|
B|---3-3-3---3-3-3---3-3-3---3-3-3----------|
G|---0-0-0---0-0-0---0-0-0---0-0-0----------|
D|------------------------------------------|
A|------------------------------------------|
E|-3-------3-------3-------3----------------|


(primeira parte)

(tocar toda a sequencia 2x)

   G                 F#m     B7       Em
E|---3-3-3---3-3------2-2-2---2-2-2----0-0-0|
B|---3-3-3---3-3------2-2-2---0-0-0----0-0-0|
G|---0-0-0---0-0------2-2-2---2-2-2----0-0-0|
D|-----------------------------------2------|
A|--------------------------2---------------|
E|-3-------3------0-2-----------------------|


    Em  Em/D          D7       G          G/F#
E|---0---0----0-0-0----2-2-2----3-3-3--3---3|
B|---0---0----1-1-1----1-1-1----3-3-3--3---3|
G|---0---0----0-0-0----2-2-2----0-0-0--0---0|
D|-2---0-------------0----------------------|
A|----------3-------------------------------|
E|----------------------------3-------3--2--|


    Em     A       C  G
E|---0---------------3-3--3-3-3-------------|
B|---0-----2-2-2--1--3-3--3-3-3-------------|
G|---0-----2-2-2--0--0-0--0-0-0-------------|
D|---------2-2-2--2-------------------------|
A|-------0--------3-------------------------|
E|-0---0-------------3-3--------------------|


Yesterday
All my troubles seemed so far away
Now it looks as though they're here to stay
Oh, I believe in yesterday

Suddenly
I'm not half the man I used to be
There's a shadow hanging over me
Oh, yesterday came suddenly

(segunda parte)

    B7/F#   B7       pass 1        Am
E|---2-2-2---2-2-2--0---2---3-2-0---0-0-0---|
B|---0-0-0---0-0-0----0---0---------1-1-1---|
G|---2-2-2---2-2-2------------------2-2-2---|
D|------------------2---0-------------------|
A|---------2----------------3-2---0---------|
E|-2----------------------------------------|


    D        G
E|---2-2-2----3-3-3---3-3-3-----------------|
B|---3-3-3----3-3-3---3-3-3-----------------|
G|---2-2-2----0-0-0---0-0-0-----------------|
D|-0----------------------------------------|
A|------------------------------------------|
E|----------3-------3-----------------------|


   B7/F#    B7      (pass 1)        Am
E|---2-2-2---2-2-2--0---2---3-2-0---0-0-0---|
B|---0-0-0---0-0-0----0---0---------1-1-1---|
G|---2-2-2---2-2-2------------------2-2-2---|
D|------------------2---0-------------------|
A|---------2----------------3-2---0---------|
E|-2----------------------------------------|


    D     (pass 2)
E|---2-2-2----------------------------------|
B|---3-3-3------3---1---0-------------------|
G|---2-2-2----0---0---0---0-----------------|
D|-0----------------------------------------|
A|------------------------------------------|
E|----------3-------------------------------|


Why she had to go I don't know
She wouldn't say
I said something wrong now I long
For yesterday

(terceira parte)

(*Basta tocar as partes anteriores nessa ordem)

 1ª parte ; 2ª parte ; 1ªparte novamente

Yesterday
Love was such an easy game to play
Now I need a place to hide away
Oh, I believe in yesterday

Why she had to go I don't know
She wouldn't say
I said something wrong now I long
For yesterday

Yesterday
Love was such an easy game to play
Now I need a place to hide away
Oh, I believe in yesterday

(* No final da música, vamos tocar uma finalização)

E|-3-3-3-3-3-3---3--------------------------|
B|-3-3-2-2-1-1h3-1h3------------------------|
G|------------------------------------------|
D|------------------------------------------|
A|------------------------------------------|
E|------------------------------------------|

Página 1 / 1

Letras y titulo
Acordes y artista

restablecer los ajustes
variar acorde