Smooth Modulator

A Static Lullaby

Composición de: A Static Lullaby
tono: Db
//////////////////////////// Smooth Modualtor \\\\\\\\\\\\\\\\\\\\\\\\\\\\
\\\\\\\\\\\\\\\\\\\\\\\\\\\\ Faso Latido /////////////////////////////////
          BY: DA MIDGET
Tuning is DADGBe   i'm about 95% sure this is flawless 

|----789-|----987---------------------------------------------------------|
|-98-----|-98-------------------------------------------------------------|
|--------|----------------------------------------------------------------|
|--------|----------------------------------------------------------------|
|--------|----------------------------------------------------------------|
|--------|----------------------------------------------------------------|
Intro 3 times  Then do that on the 4th then do all of that 2 times
|--------------------|-----907-------------------------------------------|
|--------------------|-907-----------------------------------------------|
|--------------------|---------------------------------------------------|
|--7--9--7--9-7/9p7--|---------------------------------------------------|
|--------------------|---------------------------------------------------|
|22-22-22-22-2-------|---------------------------------------------------|
3 times               do this after then do all of that 2 times
|----------------------------------|----789----789-----------------------|
|----------------------------------|-98-----98---------------------------|
|----------------------------------|-------------------------------------|
|222-4---------222-444-666---------|-------------------------------------|
|222-4---------222-444-666---------|-------------------------------------|
|222-4-012-012-222-444-666-012-012-|-------------------------------------|
       PM.....             PM.....x2 then this again
|------------------|-----907---------------------------------------------|
|------------------|-907-------------------------------------------------|
|------------------|-----------------------------------------------------|
|--7--9--7--9-7/9p7|-----------------------------------------------------|
|------------------|-----------------------------------------------------|
|22-22-22-22-2-----|-----------------------------------------------------|
3 times              this after again  /do this twice
|----------------------------------|----789----789-----------------------|
|----------------------------------|-98-----98---------------------------|
|----------------------------------|-------------------------------------|
|222-4---------222-444-666---------|-------------------------------------|
|222-4---------222-444-666---------|-------------------------------------|
|222-4-012-012-222-444-666-012-012-|-------------------------------------|
       PM.....             PM.....x2 then this again
|------------------------------------------------------------------------|
|------------------------------------------------------------------------|
|-------------------4/6/8/6/8/6/4/6--------------------------------------|
|-----------------------------------------444466662222-------------------|
|2222p0444466662222-2/4/6/4/6/4/2/4-2222p0-------------------------------|
|------------------------------------------------------------------------|
here's the solo 
|------------------------------------------------------------------------|
|------------------------------------------------------------------------|
|------------------------------------------------------------------------|
|222222444444666666222222444444666666------------------------------------|
|222222444444666666222222444444666666------------------------------------|
|222222444444666666222222444444666666------------------------------------|
this is the fill after the solo 3 times
|----------------------------------|----789----789-----------------------|
|----------------------------------|-98-----98---------------------------|
|----------------------------------|-------------------------------------|
|222-4---------222-444-666---------|-------------------------------------|
|222-4---------222-444-666---------|-------------------------------------|
|222-4-012-012-222-444-666-012-012-|-------------------------------------|
       PM.....             PM.....x2 then this again
|------------------------------------------------------------------------|
|------------------------------------------------------------------------|
|------------------------------------------------------------------------|
|222222444444666666222222444444666666------------------------------------|
|222222444444666666222222444444666666------------------------------------|
|222222444444666666222222444444666666------------------------------------|
then this again 3 times
|2222244444666668888810101010102222244444--------------------------------|
|2222244444666668888810101010102222244444--------------------------------|
|2222244444666668888810101010102222244444--------------------------------|
|-----------------------------------------6------------------------------|
|-----------------------------------------6------------------------------|
|-----------------------------------------6------------------------------|
then the outro 

thats all... good song 
if you have any questions my email is *


  Good
           Luck
                      With
                             The
                                      Tab
Página 1 / 1

Letras y titulo
Acordes y artista

restablecer los ajustes
OK