Cien Años

Abel Pintos

Composición de: Abel Pintos
tono: Em

E|---3-2-0----------------7-5-3------------|
B|--------------3-1-------8-7-5-----3-1----|
G|--------------4-2-0---------------4-2-0--|
D|-----------------------------------------|
A|---------023--------2/7-------023--------|
E|-0---------------------------------------|

E|-----7-5-3---------------7-5-3-----------|
B|-----8-7-5-----3-1-------8-7-5-----3-1---|
G|---------------4-2-0---------------4-2-0-|
D|-----------------------------------------|
A|-2/7-------023-------2/7-------023-------|
E|-----------------------------------------|

 Em        Bm 
Ahora y en cien años más
    Am        G  
las cosas van a ser igual
 Em      Bm 
Ahora preguntan por qué
    Am                  G  
te quiero lo mismo que ayer
   C                   Em 
No van a entender, no habitan mi piel
   Am                   C 
no saben que por ti doy todo
                    D                F 
Que en tus brazos encuentro mi hogar


 Em 
Ahora que llegamos hasta aquí
                B7 
a través de tanta historia
 Em 
Ahora abrazando tu dolor
               B7 
resistiendo aquí contigo
 G                         D 
Ahora pongo a Dios como testigo
 Am                         B7 
Ahora bendigo este amor... Ahora

Em -C  -Em -C 

 Em      Bm 
Ahora preguntan por qué
    Am                  G  
te quiero, los mismos de ayer
     C            Em 
No entienden, no habitan mi piel
   Am                   C 
no saben que por ti doy todo
                D 
Que tú brazos encuentro mi hogar
 F 
Ahora y en cien años más.

Estribillo:

Ahora que llegamos hasta aquí
a través de tanta historia
Ahora abrazando tu dolor
resistiendo aquí contigo
Ahora pongo a Dios como testigo
Ahora bendigo este amor... Ahora (bis).

 Em    B7 
Ahora
 G                        D 
Ahora pongo a Dios como testigo
 Am                         B7 
Ahora bendigo este amor... Ahora

Em -C  -Em -C 


Ahora que Abel se rompe la garganta en sus ultimas canciones
los quiero ver a ustedes cantando esta canción
en el tono original.. ahoraa! Abrazos
Página 1 / 1

Letras y titulo
Acordes y artista

restablecer los ajustes
OK