Snake Eyes Tab

AC/DC

tono: C
Intro
 -------------|
 -------------|
 -------------|
 -xxx~~~~~----|
 ---xxx~~~~~--|
 ----xxx~~~~~-|

 Main Riff
 -------------------|
 -------------------|
 -------------------|
 -------------------|
 -3-2-0------0-2-3~-|
 -------1~-1--------|

 Verse
 --------------|
 ---------3----|
 --2--5---2--5-|
 --2--5---0--5-|
 --0--3------3-|
 --------------|

 Chorus
 "Snake Eyes"...
 --------2------------------------|
 --------3------------------------|
 ---2----2------------------------|
 ---2----0------------------------|
 ---0----------3-2-0------0-2-3-2-|
 --------------------1~-1---------|
Página 1 / 1

Letras y titulo
Acordes y artista

restablecer los ajustes
OK