Full Circle Intro

Aerosmith

tono: C
Full Circle- Chorus
- This is my first tab so it's probably wrong, but i noticed that the only tab for full 
was rhythm so here's the part that Perry plays in part of the intro and through the chorus.

 Time, don't let it slip away
--------------------------------------------------------------------|
----8~--8---10--12--12---10-10--------------------------------------|
----0~--0----0---0---0---0--0---------------------------------------|
--------------------------------------------------------------------|
--------------------------------------------------------------------|
--------------------------------------------------------------------|

Raise your drinkin' glass /don't piss heaven off
--------------------------------------------------------------------|
---12--10--10--8-8--------------------------------------------------|
----0---0---0--0-0--------------------------------------------------|
--------------------------------------------------------------------|
--------------------------------------------------------------------|
--------------------------------------------------------------------|

Here's to yesterday /We got hell to pay
--------------------------------------------------------------------|
---11--9--9---7-7---------------------------------------------------|
----0--0--0---0-0---------------------------------------------------|
--------------------------------------------------------------------|
--------------------------------------------------------------------|
--------------------------------------------------------------------|
Página 1 / 1

Letras y titulo
Acordes y artista

restablecer los ajustes
OK