Dixieland Delight Solo

Alabama

tono: D
Dixieland Delight - solo
By:  Charles Brooks - *
11/20/04

Solo
12th fret harmonic at end.
E-----------------------------------------------------------------------------|
B--2------------------------3------------------------------------------8------|
G-----------0---2(b)-2(bh)----2(b)--0----------------------------7--9---------|
D----0-(2)----------------------------------------------0-2-------------------|
A-------------------------------------0-2-0---------0-2-----------------------|
E-------------------------------------------3-0-2-3---------------------------|

E----------------10--------------------15-17(b)-17(b)-15-17(b)-15-------------|
B--10(b)-10(bh)-----10(b)--8---15--17-------------------------------18(b)-----|
G-----------------------------------------------------------------------------|
D-----------------------------------------------------------------------------|
A-----------------------------------------------------------------------------|
E-----------------------------------------------------------------------------|
Página 1 / 1

Letras y titulo
Acordes y artista

restablecer los ajustes
OK