Sticks And Stones

Alien Ant Farm

Composição: Dryden Mitchell / Mike Cosgrove / Terry Corso / Tye Zamora
===========================================================
	 Album: ANThology
===========================================================

Tabbed: TheMutts @ *
Email: *

Tuning: Standard

-----------------
Verse
-----------------
|---------------------|
|---------------------|
|---------------------|repeat as needed
|-2-2-0-0----2-2-0-0--|


-----------------
Chorus
-----------------
|----------------------------|
|----------------------------|
|-0-0-0-0--------------------|repeat as needed
|----------4-4-4-2--0-0-0-0--|

-----------------
Bridge
-----------------
|------------------------------|
|------------------------------|
|------------------------------|
|--0-0--2-2-2-2--4-4--2-2-2-2--|

|---------------------------|
|---------------------------|
|---------------------------|
|-2-2-2-2-2-2--0-0-0-0-0-0--|


Thats it, really non-complex.
Página 1 / 1

Letras y titulo
Acordes y artista

restablecer los ajustes
OK