5-3-10-4

Alkaline Trio

tono: C
TABBED BY * dean 


listen to cd for strumming patterns.
INTRO 
e|---------------------------------------| 
B|---------------------------------------| 
G|----------------9--10------------------| 
D|--7--9--12--10--9--10------------------| 
A|--7--9--x---10--7--8-------------------| 
E|--5--7--10--8--------------------------| x2

VERSE
e|---------------------------------------| 
B|---------------------------------------| 
G|----------------9--10------------------| 
D|--7--9--12--10--9--10------------------| 
A|--7--9--x---10--7--8-------------------| 
E|--5--7--10--8--------------------------| x4

END OF VERSE

e|---------------------------------------| 
B|---------------------------------------| 
G|------10-------------------------------| 
D|--10--10-------------------------------| 
A|--10--8--------------------------------| 
E|--8------------------------------------| 

INTRO X 2
VERSE X 4
END OF VERSE X 2

CHORUS listen to cd for the rhythm 
e|---------------------------------------| 
B|---------------------------------------| 
G|----------10---------------------------| 
D|--10--10--10---------------------------| 
A|--10--10--8----------------------------| 
E|--8---8--------------------------------| 

next part repeat the same as above, but strum.

e|---------------------------------------| 
B|---------------------------------------| 
G|-----10--------------------------------| 
D|--3---x--------------------------------| 
A|--3---8--------------------------------| 
E|--1------------------------------------| 

INTRO X 2
VERSE X 4
END OF VERSE X 2
CHORUS X 1
INTRO X 2
verse = bass only
CHORUS X 1
Página 1 / 1

Letras y titulo
Acordes y artista

restablecer los ajustes
OK