Dragón Rojo

Amaral

tono: Em
   Em      D     Am      Em    Em      D       Em      Em
E|--2-3-2-----2---2-3-2---------2-3-2-----2--------------|
B|-5-----5-3-5---5-----5-3-5---5-----5-3-5-5-3-5-5---5---|
G|--------------------------4---------------------4-4-4--|
D|-------------------------------------------------2---2-|
A|-------------------------------------------------------|
E|-------------------------------------------------------|

   Em      D      D        Em    Em      D       Em    Em
E|--2-3-2-----2---2-3-5-3-2-2-3---2-3-2-----2----------------|
B|-5-----5-3-5-------------5-----5-----5-3-5-5-3-5-5---5-5---|
G|--------------------------------------------------4-----4--|
D|---------------------------------------------------2-----2-|
A|-----------------------------------------------------------|
E|-----------------------------------------------------------|

   Em            D       Em
E|-------------------------|
B|---------------3---------|
G|---4-4-5-4-4-5---5-4-2-4-| (x2)
D|-2-----------------------|
A|-------------------------|
E|-------------------------|

   Am            Em        Am            Em
E|-----------------------------------------|
B|-----------------------------------------|
G|---2-2-4-2-----------------2-2-4-2-------|
D|-2---------5-4-2-2-4-5---2---------5-4-2-|
A|-----------------------------------------|
E|-----------------------------------------|

   Em      D     D        Em    Em      D       Em       Em
E|--2-3-2-----2--2-3-5-3-2-2-3---2-3-2-----2-------------------------|
B|-5-----5-3-5------------5-----5-----5-3-5-5-3-5-5---5--5-5---------|
G|-------------------------------------------------4-4-4----4-5-4-2--|
D|--------------------------------------------------2--------------5-|
A|-------------------------------------------------------------------|
E|-------------------------------------------------------------------|

   Em      D     D        Em    Em      D       Em     Em
E|--2-3-2-----2--2-3-5-3-2-2-3---2-3-2-----2---------------------|
B|-5-----5-3-5------------5-----5-----5-3-5-5-3-5-5----5---------|
G|-------------------------------------------------4----4-5-4-2--|
D|--------------------------------------------------2----------5-|
A|---------------------------------------------------------------|
E|---------------------------------------------------------------|

   Em      D     D        Em    Em      D       Em
E|--2-3-2-----2--2-3-5-3-2-2-3---2-3-2-----2------|
B|-5-----5-3-5------------5-----5-----5-3-5-5-3-5-|
G|------------------------------------------------|
D|------------------------------------------------|
A|------------------------------------------------|
E|------------------------------------------------|
Página 1 / 1

Letras y titulo
Acordes y artista

restablecer los ajustes
OK