Enfermedad de tí

Andrés Cepeda

Composición de: Amaury Gutierrez
tono: Am
INTRO
E|----------------------------|
B|-0-------0-------1---------3|
G|-0----0------0--------0-----|
D|----------------------------|
A|----------------------------|
E|-3--------------------------|

E|-----------------|
B|-1-------1-------|
G|-0----0------(2)-|
D|-2---------------|
A|-----------------|
E|-3---------------|

yo tengo una enfermedad de ti
Me hace daño todo si no estas

E|----------------------------X2|
B|-0-------0-------1---------3|
G|-0----0------0--------0-----|
D|----------------------------|
A|----------------------------|
E|-3--------------------------|

Necesito compañía de tu amor

E|-----------------0------------------------------------|
B|---------3-------------3-------------3---0----------0-|
G|------1------1-----------------------1---1-------1----|
D|-2--------------------------------2--2---2----2-------|
A|-2--------------------------2-------------------------|
E|------------------------------------------------------|

Una necesidad una dependencia loca
De tus cosas y tú forma de mirar
E|--------------------------------------|
B|-0-------0--------1--------3--------|
G|-0-------0--------0--------0--------|
D|-2----2------2---------2------------|
A|-0----------------------------------|
E|------------------------------------|

E|-----------------------------------------------------------0-|
B|-0-------0--------1--------3-----------3--------------3------|
G|-0-------0--------0--------0--------0------------2-----------|
D|-2----2------2---------2---------2----------2----------------|
A|-0-----------------------------------------------------------|
E|------------------------------0------------------------------|

(las mismas notas anteriores)

Yo tengo una enfermedad de ti
Mi voluntad no puede resistir
No decido si me quedo si me voy
Se que al final tu no eras para mi
Pero es que el alma no sabe elegir


Perdí la brújula no se ni a donde voy

E|------------------------------------------0-|
B|----------------------3-----------3---------|
G|-------------0---------------2--------------|
D|--------2----------2------------------------|
A|--------------------------------------------|
E|---0----------------------------------------|

                         Este amor es un

E|-----1--------0---------------|
B|----1-----------------1---3---|
G|---2----2------------0----0---|
D|--0-----------------0-----0---|
A|------------------------------|
E|----------------0-------------|

juegoo                   pero

E|----------------3----------|
B|--1------3--------------3--|
G|---------0--------------0--|
D|------0------0------0------|
A|--3------------------------|
E|---------------------------|

yo me lo he tomado muy enserio

E|-1-----1----3------5---5-----5-----5----5-|
B|-1---------------------5-----5-----5----5-|
G|-2--2-----2-----2---------0-----------0---|
D|-0-----------------------------0/5--------|
A|-----------------------5------------------|
E|------------------------------------------|

E|----------------------------------|
B|------5---------8--6--5--6--------|
G|------5---5-----7--5--5--5--------|
D|----------7-----------------------|
A|-5/7---------5/7------------------|
E|----------------------------------|

Y Ya  no hay remedio  por  que yo me he vuelto ciego

E|------------------------------------------3--------------|
B|--1------0-------1-----3------------3--------------------|
G|--2--------------2--------------0------0-----0-----------|
D|------2------2------2-------0----------------------------|
A|--0------0-------0---------------------------------------|
E|---------------------------------------------------------|

Y voy prendido de tu pelo a donde vayas corazón

E|-------------3-----------------------3--2---------|
B|----------1---------------5-----------------------|
G|-------0--------------7---------------------------|
D|--------------------------------------------------|
A|----3------------3/5-----------3------------------|
E|--------------------------------------------------|

a donde vallas


E|----------------------------|
B|-0-------0-------1---------3|
G|-0----0------0--------0-----|
D|----------------------------|
A|----------------------------|
E|-3--------------------------|

E|-----------------|
B|-1-------1-------|
G|-0----0------(2)-|
D|-2---------------|
A|-----------------|
E|-3---------------|


david illescas
Esta es to da la cancion asi  es  solo  en una parte de la
estrofa suben medio tono al do  y  apenas acaben eltiempo de eso  do
vuelven al estado normal de la cancion  ...... es todo david illescas
Página 1 / 1

Letras y titulo
Acordes y artista

restablecer los ajustes
OK