Love Like Rockets

Angels & Airwaves

tono: C
INTRO PART 1 (repeat 2 times)
|-5555--2--3333--2--5555--2--3333--2--2222--0--3333--2--2222--0--3333--2---|
|-3333--3--3333--3--3333--3--3333--3--3333--3--3333--3--3333--3--3333--3---|
|--------------------------------------------------------------------------|
|--------------------------------------------------------------------------|
|--------------------------------------------------------------------------|
|--------------------------------------------------------------------------|

INTRO PART 2 (0:31) (repeat a few times)
|----5------3-----3------3-----5-----3------2-----3-------|
|-3--3--3--3--3--2--3--3--3--3--3--3--3--3--3--3----------|
|---------------------------------------------------------|
|---------------------------------------------------------|
|---------------------------------------------------------|
|---------------------------------------------------------|

INTRO PART 3 AND VERSE (1:02) (repeat a few times)
|---5555-5555--5--3333-3333--3--5555-5555--5--3333-3333--3--------|
|---3333-3333--3--3333-3333--3--3333-3333--3--3333-3333--3--------|
|-----------------------------------------------------------------|
|-----------------------------------------------------------------|
|-----------------------------------------------------------------|
|-----------------------------------------------------------------|

INTRO PART 1 (2:18 )

INTRO PART 3 AND VERSE (2:33) (repeat a few times)

INTRO PART 1 (3:19)

SOLO (3:49) (repeat a few times)
|--555-333-22-000-222-----000-222-----------------------|
|---------------------------33-----------3333333333-----|
|-------------------------------------------------------|
|-------------------------------------------------------|
|-------------------------------------------------------|
|-------------------------------------------------------|

INTRO PART 3 AND VERSE (4:05) (repeat a few times)
Página 1 / 1

Letras y titulo
Acordes y artista

restablecer los ajustes
OK