Feminism Is For Everybody

Anti-Flag

Composición de: Anti-Flag
Intro: x1

F|--------|
C|--------|
G|--------|
D|---04---|


Verse:

F|---------------------|
C|--6---7---8---9------|
G|4--45--56--67--------|  x2
D|-------------------04|

F|---------------------------|
C|-------------6---7---8---9-|
G|-----------4--45--56--67---|
D|4444444444-----------------|

F|--------------------------------------|
C|----64--------4-6------6---7---8---9--|
G|------64--4-6--------4--45--56--67----|
D|04------64----------------------------|

Chorus:

F|------------------------|
C|------------666666666666|
G|444444444444------------|
D|------------------------|


Post-Chorus: x4

F|-----------------|
C|---6---7---8---9-|
G|-4--45--56--67---|
D|-----------------|

Chorus: x1

Bridge Part 1: x1

F|---------|
C|---------|
G|---------|
D|4~-----4~|


Bridge Part 2: x1

F|-------------------------------------------------------|
C|------------22222-----------------------------22222222-|
G|-------------------------44440000-2-------4444---------|
D|444444444444-------9/4444-----------5-4444------------5|

Bridge Part 2 (Continued): x1

F|------------------------------|
C|------------------------------|
G|----44440000-2------4445556667|
D|4444-----------5-444----------|

Outro: x1 (Those are 10's and 11's etc.)

F|------------------------------------------|
C|---6---7---8---9---10---11----12-----13/0-|
G|-4--45--56--67--78---89---910---1011------|
D|------------------------------------------|
Página 1 / 1

Letras y titulo
Acordes y artista

restablecer los ajustes
OK