Pizza Day

Aquabats

tono: Bb
Album: Myths, Legends, And Other Amazing Adventures Volume 2

There aren?t nearly enough tabs from this album, and I consider it to
be their best yet!

------------------------------------------------------------------------------------------

Intro and Chorus (They?re the same thing):
E-----------------------------|
B-----------------------------|
G----------10-----------------|
D---8------10----6-----8------|
A---8------8-----6-----8------|
E---6------------4-----6------|

Verse (Done with ska style upstrokes):
E---6-----1-----2-----3------|
B---6-----1-----3-----4------|
G---7-----2-----2-----3------|
D----------------------------|
A----------------------------|
E----------------------------|

"That other section":
E-----------------|
B-----------------|
G-----------------|
D---3b------------|
A------------5b---|
E-----------------|

Notes:
I didn?t include the rhythms, but it?s pretty easy to figure them out?
just listen to the song.  Also: on the intro to the final chorus of the song,
Chainsaw plays Bb, F, D, Eb instead of Bb, F, Ab, Bb.  After the intro
to the chorus, though, he launches into that.

May the force be with you and every day be as good as pizza day.
Página 1 / 1

Letras y titulo
Acordes y artista

restablecer los ajustes
OK