Cifra Club

Who The Fuck Are Arctic Monkeys?

Arctic Monkeys

Tablatura: Principal (guitarra)
Tom: F#m
[Intro]

E|---------------------|
B|---------------------|
G|---------------------|
D|---7-9-7-9-7---7-----|
A|-------------9-------|
E|---------------------|

[Primeira Parte]

E|--------7----9----7-|--------7--------------------|---------------|-----------14’-|
B|---7-10---10---10---|---7-10---10-7-------10-7----|---------------|---------------|
G|-9------------------|-9-------------7-9-7-------*-|---------------|--------11’----|
D|--------------------|---------------------------*-|-9-11-7---(X3)-|-9-11----------|
A|--------------------|-----------------------------|--------9------|------9’-------|
E|--------------------|-----------------------------|---------------|---------------|

[Solo]

E|-------------------------------------------------------------------------------------
B|-------------------------------------------------------------------------------------
G|-------------------------------------------------------------------------------------
D|-------------------------------------------------------------------------------------
A|--------9-7-5-----9-7-5------------------------------------------12-14-12------------
E|--5-7-7-------7-7-------5-7-5-7-5-7-5-7-5-2-2-2-5-7-7-7»10»12»14----------14-12-10-12

E|----------------------------------------------------------|
B|----------------------------------------------------------|
G|-----9-7--------------------------------------------------|
D|---------9-7----------------------------------------------|
A|-9-7---------7-9-7-5-7-7-5-7-7-5-7-5----------------------|
E|-------------------------------------5-7-5-7-7-5-7-7-5-2--|

[Segunda Parte]

E|------------------|----------------|------------------|----------9----11----9-|------
B|------------------|----------------|------------------|-----9-12---12----12---|----9-
G|------------------|----------------|------------------|--11-------------------|-11---
D|-9-11-9-11-9----9-|-9-11-9-11-9----|------------------|-----------------------|------
A|-------------11---|-------------11-|-12----9----14-12-|-----------------------|------
E|------------------|----------------|----12---12-------|-----------------------|------


E|----9-------------------|
B|-12---12-9--------12-9--|
G|-----------9-11-9-------|
D|------------------------|
A|------------------------|
E|------------------------|

E|--------|--------|-------------------|
B|--------|--------|-------------------|
G|--4-----|-4-----*|-------------------|
D|------3-|---3---*|----------9’-7’----|
A|----2---|-----2--|-2’-5’-8’-------9’-|
E|--------|--------|-------------------|

[Terceira Parte]

E|---------------------|---------------------|
B|---------------------|---------------------|
G|---4-2-----4-2-------|---4-2-----4-2-------|
D|-------4-------4---4-|-------4-------4---3-|
A|-2-------2-------2---|-2-------2-------2---|
E|---------------------|---------------------|

E|-----------------|-----------------|
B|-----------------|-----------------|
G|-----------------|-----------------|
D|------9---7-7----|------9---7-7----|
A|-7-10---7-----10-|-7-10---7-----10-|
E|-----------------|-----------------|
reproducciones 974
Acordes para:
    Composição: Alex Turner Colaboración y revision:
    • Lucas Kappaun
    • Guilherme Lopes

    0 comentarios

    mostrar más comentarios

    ¿Conseguiste tocar?

    3 tocaron 0 aún no

    ¡Graba un vídeo tocando Who The Fuck Are Arctic Monkeys? y envianoslo!

    00:00 / 00:00
    outros vídeos desta música
    repetir qualidade Automático
    Outros vídeos desta música
    00:00 / 00:00
    Automático
    OK