Show Me The Meaning Of Being Lonely

Backstreet Boys

Composición de: Herbert Crichlow / Max Martin
tono: Db
Tabbed by Kang Ho, *.
  
this is my first one so.........

------------------------------8-6-----------9-8-6------------------------
6--8-9-------6--8-9-----------------------------------------------------
--------------------------------------------------------------------------------
--------------------------------------------------------------------------------
--------------------------------------------------------------------------------
--------------------------------------------------------------------------------
...........things you never show
-------------------------------------11-9-----------------------------------
9-11-12------9-11-12---------------12-11-9-------------------
---------------------------------------------------------------------------------
---------------------------------------------------------------------------------
---------------------------------------------------------------------------------
----------------------------------------------------------------------------------

-------------------11-9-------11-11-----------11-9--------------------
8-9-11-12------------12------------------------------12----------------
------------------------------------------------------------------------------------
-----------------------------------------------------------------------------------
----------------------------------------------------------------------------------
-----------------------------------------------------------------------------------

------------------------------------------------------------------------------------
12-11-9---------------------------------------------------------9-11-12-
--------------11-9-8-6-------------------6-8-9--9h11-----------------
------------------------------------------------------------------------------------
------------------------------------------------------------------------------------
------------------------------------------------------------------------------------

ne comments- * 

:: Ultimate Guitar Archive :: 
http://* 

 
Página 1 / 1

Letras y titulo
Acordes y artista

restablecer los ajustes
OK