Butterfly (Tab)

BTS

Composição de: “Hitman” Bang & Slow Rabbit; Escrito por: “Hitman” Bang, Slow Rabbit, Brother Su
tono: B (con acordes en la forma de G ) Capotraste na 4ª casa
        C9
E|-------------------------|
B|------3------------------|
G|---0----0----------------| (2x)
D|--2-2--2-2---------------|
A|-3-----------------------|
E|-------------------------|

        G
E|-------------------------|
B|------3------------------|
G|---0----0----------------| (2x)
D|--0-0--0-0---------------|
A|-------------------------|
E|-3-----------------------|

        Bm
E|-------------------------|
B|------3------------------|
G|---2----2----------------| (2x)
D|--4-4--4-4---------------|
A|-2-----------------------|
E|-------------------------|

        Em
E|-------------------------|
B|------3------------------|
G|---0----0----------------| (2x)
D|--2-2--2-2---------------|
A|-2-----------------------|
E|-------------------------|




[Variação Intro]
       
E|----------2h3-2--------------|
B|------3---------3/5-3--------|
G|---0----0--------------------|
D|--2-2--2---------------------|
A|-2---------------------------|
E|-----------------------------|




(JungKook)

C9
Amugeotdo saenggakhaji ma
G
Neon amu maldo kkeonaejido ma
Bm                   Em
Ayo oh, geunyang naege useojwo

(V)
C9
Nan ajikdo mitgijiga anha
G
I modeun ge da kkumin geot gata
Bm                  Em
Ayo oh, sarajiryeo hajima

(JungKook)
C9                G
Is it true? Is it true?
Bm
You You
 Em
Neomu areumdawo duryeowo

(Jimin)
C9       G
Untrue Untrue
Bm (3x e depois pause)
You You You

*Agora você não dedilha mais, toque normal*

(JungKook)
               C9
Gyeote meomulleojullae
                G
Naege yaksokhaejullae
              Bm
Son daemyeon naragalkka buseojilkka
  Em
Geobna geobna geobna

(Jimin)
              C9
Siganeul meomchullae
            G
I sungani jinamyeon
             Bm
Eobseotdeon iri doelkka neol irheulkka
    Em
Geobna geobna geobna

(JungKook)
   C9                    Bb
Butterfly, like a butterfly
                              G
Machi butterfly, bu butterfly cheoreom

(V)
   C9                    Bb
Butterfly, like a butterfly
                              G
Machi butterfly, bu butterfly cheoreom

*Aqui você volta a dedilhar*

(Suga)
 C9
Neon machi Butterfly
 G
Meolliseo humchyeobwa son daheumyeon neol irheulkka
 Bm
I chilheuk gateun eodum sok nal barkhineun nabihyogwa
  Em
Ni jageun sonjit han beone hyeonsireul ijeo nan

(J-Hope)
 C9
Salmyeosi sseudadeumneun baram gata
    G
Salposi pyoryuhaneun meonji gata
  Bm                                (Pause)
Neon geogi itjiman waenji dahji anha Stop

Kkum gateun neon naege butterfly, high

(Jin)

C9       G
Untrue Untrue
Bm 
You You You
Bm 
You You You
Bm 
You You You


(JungKook)
               C9
Gyeote meomulleojullae
                G
Naege yaksokhaejullae
              Bm
Son daemyeon naragalkka buseojilkka
  Em
Geobna geobna geobna

(V)
              C9
Siganeul meomchullae
            G
I sungani jinamyeon
             Bm
Eobseotdeon iri doelkka neol irheulkka
    Em
Geobna geobna geobna


(Rap Monster)

*Você não precisa tocar nessa parte, mas se quiser dar um apoio ao vocal...)
C9
Simjangeun memareun sorireul nae

Kkuminji hyeonsirinji al su eobtne
    Bb
Naui haebyeonui kapeukayeo

Jeogi supeuro gajin marajwo

Nae maeumeun ajik neo wie buseojyeo

Jogakjogak kkamake noga heulleo
   G
(Nan geunyang idaero jeungbalhago sipeo)
                           (Pausa)
Nae sarangeun yeongwonin geol
                           
It's all free for you baby


(JungKook)
               C9
Gyeote meomulleojullae
                G
Naege yaksokhaejullae
              Bm
Son daemyeon naragalkka buseojilkka
  Em
Geobna geobna geobna

(V)
              C9
Siganeul meomchullae
            G
I sungani jinamyeon
             Bm
Eobseotdeon iri doelkka neol irheulkka
    Em
Geobna geobna geobna

(Jimin)
   C9                    Bb
Butterfly, like a butterfly
                              G
Machi butterfly, bu butterfly cheoreom

(Jin)
   C9                    Bb
Butterfly, like a butterfly
                              G
Machi butterfly, bu butterfly cheoreom
Página 1 / 1

Letras y titulo
Acordes y artista

restablecer los ajustes
OK