Army Of God

Behind Enemy Lines

tono: A
Album: The Global Cannibal
Tabbed by *

C Standard tuning (Low to High:C,F,Bb,Eb,G,C)


Intro
|----------------------------------------------------------------|
|----------------------------------------------------------------|
|----------------------------------------------------------------|
|-2--------------------------------------------------------------|
|-2--------------------------------------------------------------|
|-0--------------------------------------------------------------|

Verse (Riff A)
|----------------------------------------------------------------|
|----------------------------------------------------------------|
|----------------------------------------------------------------|
|-2----------------------------3-3-3-6---------------------------|
|-2----------------------------3-3-3-6---------------------------|
|-0-000000-5^-000000-5^-000000-1-1-1-4---------------------------|
    ......    ......    ......

Verse (Riff B)
|----------------------------------------------------------------|
|----------------------------------------------------------------|
|----------------------------------------------------------------|
|-2----------------------------3-3-3-6---------------------------|
|-2----------------------------3-3-3-6---------------------------|
|-0----------------------------1-1-1-4---------------------------|

Chorus
|----------------------------------------------------------------|
|----------------------------------------------------------------|
|-4-3--3-3-3-3-3-------------------------------------------------|
|-4-3--3-3-3-3-3-------------------------------------------------|
|-2-1--1-1-1-1-1-------------------------------------------------|
|----------------------------------------------------------------|
Página 1 / 1

Letras y titulo
Acordes y artista

restablecer los ajustes
OK