La Bolsa

Bersuit Vergarabat

Composição de: Alberto Verenzuela / Carlos Martin / Gustavo Cordera / Gustavo Cordero / Juan Subirá / Oscar Humberto Righi / René Céspedes
tono: A
Intro  
|--------|--------|--------|--------|--------|--------|--------|--------| 
|--------|--------|--------|--------|--------|--------|--9---9-|--------| 
|--------|--------|--------|--------|--10--10|--10----|7---7---|7-5-----| 
|5-------|5---3---|1-------|--------|8---8---|8---8-10|--------|----8-7-| 

|--------|--------|--------|--------|--------|--------|--------|--------| 
|--------|--------|--10--10|--------|--------|--------|--------|--------| 
|--7---7-|--7---7-|8---8---|8-7-----|--10--10|--10--10|--------|--------| 
|5---5---|5---5---|--------|----10-8|8---8---|8---8---|00001111|22221---| 

Verso 
|--------|--------|--------|--------|--------|--------|--------|--------| 
|--------|--------|--10--10|--10--10|--------|--------|--9---9-|--9---9-| 
|--7---7-|--7---7-|8---8---|8---8---|--10--10|--10--10|7---7---|7---7---| 
|5---5---|5---5---|--------|--------|8---8---|8---8---|--------|--------| 
  
|--------|--------|--------|--------|--------|--------|--------|--------| 
|--------|--------|--10--10|--10--10|--------|--------|--------|--------| 
|--7---7-|--7---7-|8---8---|8---8---|--10--10|--10--10|77777777|7-------| 
|5---5---|5---5---|--------|--------|8---8---|8---8---|--------|--------| 

Estribillo 1 
|--------|--------|--------|--------|--------|--------|--------|--------| 
|--------|--------|--------|--------|--------|--------|--9---9-|--------| 
|--------|--------|--3---3-|--3---3-|--10--10|--10----|7---7---|7757----| 
|5-0-5-0-|5-0-5-0-|1---1---|1---1---|8---8---|8---8-10|--------|--------| 

Verso 2 
|--------|--------|--------|--------|--------|--------|--------|-9-9-9--| 
|--------|--------|--10--10|--10--10|--------|--------|--9---9-|--------| 
|--7---7-|--7---7-|8---8---|8---8---|--10--10|--10--10|7---7---|7-------| 
|5---5---|5---5---|--------|--------|8---8---|8---8---|--------|--------| 

|--------|--------|--------|--------|--------|--------|--------|--------| 
|--------|--------|--10--10|--10--10|--------|--------|--------|--------| 
|--7---7-|--7---7-|8---8---|8---8---|--10--10|--10--10|77777777|7-------| 
|5---5---|5---5---|--------|--------|8---8---|8---8---|--------|--------| 

Estribillo 2 
|--------|--------|--------|--------|--------|--------|--------|--------| 
|--------|--------|--------|--------|--------|--------|--9---9-|--------| 
|--------|--------|--3---3-|--3---3-|--10--10|--10----|7---7---|7-5-----| 
|5-0-5-0-|5-0-5-0-|1---1---|1---1---|8---8---|8---8-10|--------|----8-7-| 

|--------|--------|--------|--------|--------|--------| 
|--------|--------|--------|--------|--------|--------| 
|--------|--------|--3---3-|--3---3-|--10--10|--------| 
|5-0-5-0-|5-0-5-0-|1---1---|1---1---|8---8---|0-------| 

Puente 
|--------|--------|--------|--------|--------|--------|--------|--------| 
|--------|--------|--------|--------|--------|--------|--9---9-|--9---9-| 
|--------|--------|--------|--------|--10--10|--10----|7---7---|7---7---| 
|55555555|55553333|11111111|11111111|8---8---|8---8-10|--------|--------| 

|--------|--------|--------|--------|--------|--------|--------|--------| 
|--------|--------|--10--10|--------|--------|--------|--------|--------| 
|--7---7-|--7---7-|8---8---|8-7-----|--10--10|--10--10|--------|--------| 
|5---5---|5---5---|--------|----10-8|8---8---|8---8---|00001111|22221---| 

Verso 3 
|--------|--------|--------|--------|--------|--------|--------|--------| 
|--------|--------|--10--10|--10--10|--------|--------|--9---9-|--------| 
|--7---7-|--7---7-|8---8---|8---8---|--10--10|--10--10|7---7---|7-5-----| 
|5---5---|5---5---|--------|--------|8---8---|8---8---|--------|----8-7-| 
  
|--------|--------|--------|--------|--------|--------|--------|--------| 
|--------|--------|--10--10|--10--10|--------|--------|--------|--------| 
|--7---7-|--7---7-|8---8---|8---8---|--------|--------|7-------|--------| 
|5---5---|5---5---|--------|--------|8-------|--------|--------|--------| 

|--------|--------|--------|--------|--------|--------|--------|--------| 
|--------|--------|--10--10|--10--10|--------|--------|--9---9-|--------| 
|--7---7-|--7---7-|8---8---|8---8---|--10--10|--10--10|7---7---|7-5-----| 
|5---5---|5---5---|--------|--------|8---8---|8---8---|--------|----8-7-| 
  
Estribillo y final 
|--------|--------|--------|--------|--------|--------|--------|--------| 
|--------|--------|--------|--------|--------|--------|--9---9-|--------| 
|--------|--------|--3---3-|--3---3-|--10--10|--10----|7---7---|7-5-----| 
|5-0-5-0-|5-0-5-0-|1---1---|1---1---|8---8---|8---8-10|--------|----8-7-| 

|--------|--------|--------|--------|--------|--------|--------|--------| 
|--------|--------|--------|--------|--------|--------|--------|--------| 
|--------|--------|--3---3-|--3---3-|--10--10|--------|--------|--------| 
|5-0-5-0-|5-0-5-0-|1---1---|1---1---|8---8---|0-------|55335533|0-------| 

|--------|--------|--------|--------|--------|--------|--------|--------| 
|--------|--------|--------|--------|--------|--------|--------|--------| 
|--------|--------|--------|--------|--------|--------|--10--10|--10----| 
|55335533|0-------|55555555|55553333|11111111|11111111|8---8---|8---8-10| 

|--------|-9-9-9-9|--------|--------|--------|--------|--------|--------| 
|--9---9-|--------|--------|--------|--10--10|--10--10|--------|--------| 
|7---7---|7-7-7-7-|--7---7-|--7---7-|8---8---|8---8---|--10--10|--10----| 
|--------|--------|5---5---|5---5---|--------|--------|8---8---|8---8-10| 

|--------|--------|--------|--------|--------|--------|--------|--------| 
|--------|--------|--------|--------|--------|--------|--------|--------| 
|7755----|--------|--------|--------|--------|--------|--------|--------| 
|----8877|55441100|5-------|--------|----55-5|55555555|555-5-5-|--------|
Página 1 / 1

Letras y titulo
Acordes y artista

restablecer los ajustes
OK