Sincerebro

Bersuit Vergarabat

Composição de: René Céspedes
tono: F
Intro: 
E|-5-5-5---------|-10-10-10------------|-9-10-9-9-10-9-12----|-5-6-5-------5- 
B|-------8-6-5---|----------10-11-10-8-|------------------10-|-------8-6-8--- 
G|-------------7-|---------------------|---------------------|--------------- 
D|---------------|---------------------|---------------------|--------------- 
A|---------------|---------------------|---------------------|--------------- 
E|---------------|---------------------|---------------------|--------------- 

E|-5-5-5---------|-10-10-10------------|-9-10-9-9-10-9-12----|-5-6-5--------- 
B|-------8-6-5---|----------10-11-10-8-|------------------10-|-------8-6-5--- 
G|-------------7-|---------------------|---------------------|-------------7- 
D|---------------|---------------------|---------------------|--------------- 
A|---------------|---------------------|---------------------|--------------- 
E|---------------|---------------------|---------------------|---------------
Página 1 / 1

Letras y titulo
Acordes y artista

restablecer los ajustes
OK