Good Directions Intro

Billy Currington

tono: C
e----------------------------------------------------------------------|
B-------------------3---------------------3---------5-6-6-5------------|
G---------------------5---------------------------7---------7-5-7-7-5--|
D-----------5/7-5/7-----5/7-5-3-0-5/7-5/7---5/7-3----------------------|
A-----3-5p3------------------------------------------------------------|
E-3/5------------------------------------------------------------------|

e---------------------8------------------------------------------------|
B-------------------8--------------------------------------------------|
G-----------------9----------------------------------------------------|
D-7/5p3-5-3--8/10------------------------------------------------------|
A----------------------------------------------------------------------|
E----------------------------------------------------------------------|

Página 1 / 1

Letras y titulo
Acordes y artista

restablecer los ajustes
OK