Pump It

Black Eyed Peas

Composição: Allen Pineda / Nicholas Roubanis / Stacy Ferguson / William Adams
Tom: G
Intro:
e|---------------------------------------------------
B|---------------------------------------------------
G|---------------------------------------------------
D|---------------------------------------------------
A|---------------------------------------------------
E|0-------0---0-4-5-7-4---10-8-7---------------------

e|---------------------------------------------------
B|---------------------------------------------------
G|---------------------------------------------------
D|---------------------------------------------------
A|---------------------------------------------------
E|0-------0---0-4-5-7-4---10-8-7---------------------

e|---------------------------------------------------
B|---------------------------------------------------
G|---------------------------------------------------
D|---------------------------------------------------
A|---------------------------------------------------
E|8----7-5----8----7-5----8----7-5-------------------

e|---------------------------------------------------
B|---------------------------------------------------
G|---------------------------------------------------
D|---------------------------------------------------
A|---------------------------------------------------
E|0-------0---0-4-5-7----10-8-7----------------------

e|---------------------------------------------------
B|---------------------------------------------------
G|---------------------------------------------------
D|---------------------------------------------------
A|---------------------------------------------------
E|8----7-5----8----7-5----8----7-5-0-----------------

e|---------------------------------------------------
B|---------------------------------------------------
G|---------------------------------------------------
D|---------------------------------------------------
A|---------------------------------------------------
E|8----7-5----8----7-5----8----7-5-0-----------------

                E        E        E  
e|---------------------------------------------------
B|---------------------------------------------------
G|---------------------------------------------------
D|---------------------------------------------------
A|---------------------------------------------------
E|5-4-2----5-4-2----5-4-2----------------------------

Refrão:

e|---------------------------------------------------
B|---------------------------------------------------
G|---------------------------------------------------
D|---------------------------------------------------
A|---------------------------------------------------
E|0-------0---0-4-5-7-4---10-8-7---------------------

e|---------------------------------------------------
B|---------------------------------------------------
G|---------------------------------------------------
D|---------------------------------------------------
A|---------------------------------------------------
E|8----7-5----8----7-5----8----7-5-------------------

e|---------------------------------------------------
B|---------------------------------------------------
G|---------------------------------------------------
D|---------------------------------------------------
A|---------------------------------------------------
E|8----7-5----4--------------------------------------

e|---------------------------------------------------
B|---------------------------------------------------
G|---------------------------------------------------
D|---------------------------------------------------
A|---------------------------------------------------
E|8----7-5----8----7-5----8----7-5-------------------

           E        E        E  
e|---------------------------------------------------
B|---------------------------------------------------
G|---------------------------------------------------
D|---------------------------------------------------
A|---------------------------------------------------
E|5-4-2----5-4-2----5-4-2----------------------------

Refrão:

e|---------------------------------------------------
B|---------------------------------------------------
G|---------------------------------------------------
D|---------------------------------------------------
A|---------------------------------------------------
E|0-------0---0-4-5-7-4---10-8-7---------------------

e|---------------------------------------------------
B|---------------------------------------------------
G|---------------------------------------------------
D|---------------------------------------------------
A|---------------------------------------------------
E|8----7-5----8----7-5----8----7-5-------------------

e|---------------------------------------------------
B|---------------------------------------------------
G|---------------------------------------------------
D|---------------------------------------------------
A|---------------------------------------------------
E|0-----0-4-5-----4-5-7-----10-8-7-------------------

e|---------------------------------------------------
B|---------------------------------------------------
G|---------------------------------------------------
D|---------------------------------------------------
A|---------------------------------------------------
E|0--------------------------------------------------

e|---------------------------------------------------
B|---------------------------------------------------
G|---------------------------------------------------
D|---------------------------------------------------
A|---------------------------------------------------
E|0---3-5----------5---------------------------------

Refrão:

e|---------------------------------------------------
B|---------------------------------------------------
G|---------------------------------------------------
D|---------------------------------------------------
A|---------------------------------------------------
E|0-------0---0-4-5-7-4---10-8-7---------------------

e|---------------------------------------------------
B|---------------------------------------------------
G|---------------------------------------------------
D|---------------------------------------------------
A|---------------------------------------------------
E|8----7-5----8----7-5----8----7-5-------------------


E      G              A
La-da-di-dup-dup die dy
       C
On the stereo
E             G              A
Let those speakers blow your mind (Blow my mind, baby)
        C
To let it go, let it go
        E
Here we go
      G              A
La-da-di-dup-dup die dy (c'mon, we're there)
       C    
On the radio
E             G             D          D
The system is gonna feel so fine
Página 1 / 1

Letras y titulo
Acordes y artista

restablecer los ajustes
OK