Cifra Club

He Thought Of Cars

Blur

Tab de bajo: Principal
I tabbed this off a live video on the jools holland show so it wont be exactly like the 
album bassline.

Ive just put the main parts of the song down so you can piece them together when you 
to the song(sorry Im lazy)!!!

Standard tuning.


Intro

G:------------------------------------:
D:------------------------------------:
A:------------------------------------:
E:--33-33-33-33-33-33-33-333/5--------:

Verses

  "Moscows still red..."
G:--------------------------------------------------------:
D:--------------------------------------------------------:
A:-2------2------5-5---5---5---5--------7777------7777/---:
E:----2h5---5-2------5---5---5---5/8-88------8-88---------:

G:-----------------------------------------------------------:
D:-----------------------------------------------------------:
A:-222------2------5-5---5---5---5--------77777------7777/---:
E:-----2h5----5-2------5---5---5---5/8-88-------8-88---------:

Chorus

  "He thought of cars..."
G:-----------------------------------------------------------:
D:--------------11----------------------------------------9--:
A:-12-12-12--12----10-12-10-12--12-12-12--12-10-12-10-12-----:
E:-----------------------------------------------------------:

G:--------/12-11-10------------------/12-11-10---------:
D:------------------9-7-9----------------------9-7-9---:
A:-7-7-7--------------------7-7-7----------------------:
E:-----------------------------------------------------:

G:---------------------------------------------------------------:
D:-------9-/-12-11-10--12-11-10---------9-/-12-11-10--12-11-10---:
A:---------------------------------------------------------------:
E:--7-7----------------------------7-7---------------------------:

G:-----------------------------------------------------------:
D:-------7-/--11-9-7--11-9-7---------------------------------:
A:----------------------------99-77-55-5---------------------:
E:--5-5----------------------------------7-5-----------------:

Instrumental/Trumpet part

G:----------------------------------------------------------------------:
D:--/14-12-14--12-9-12--9-7-9-7-6-6---66---6----6/12-12-11-9/12-12-11-9-:
A:----------------------------------6----6---6--------------------------:
E:----------------------------------------------------------------------:

G:----------------/16----16----16----:
D:-/14-12-/14-12------14----14----14-:  x2
A:-----------------------------------:
E:-----------------------------------:

Second time slide down to go back to the verse

G:----------------/16----16----16/-------:
D:-/14-12-/14-12------14----14-----------:
A:-----------------------------------2---:
E:---------------------------------------:

play every thing again in the same order until you get to the little guitar solo which 
like this

G:----4-----:
D:----------:  x3
A:-3--------:
E:------0---:

then

G:---------------------------------------------------------------------:
D---/7-7p5-5------------------7p5-5------------------7p5-5-7p5-5-7p5---:
A:-----------7p5-5---5/12-----------7p5-5---5/12---------------------7-:
E:-----------------7------5-5-------------7-------55-------------------:

G:--------------------------------:
D:-----------------------------9--:
A:-7/12-12-12--12-10-12-10-12-----:
E:--------------------------------:

G:--------/12-11-10------------------/12-11-10---------:
D:------------------9-7-9----------------------9-7-9---:
A:-7-7-7--------------------7-7-7----------------------:
E:-----------------------------------------------------:

G:---------------------------------------------------------------:
D:-------9-/-12-11-10--12-11-10---------9-/-12-11-10--12-11-10---:
A:---------------------------------------------------------------:
E:--7-7----------------------------7-7---------------------------:

G:-----------------------------------------------------------:
D:-------7-/--11-9-7--11-9-7---------------------------------:
A:----------------------------99-77-55-5---------------------:
E:--5-5----------------------------------7-5-----------------:

And so on listen to the live version on jools holland via youtube and play along!!!
Composición de Alex James / Damon Albarn / Dave Rowntree / Graham Coxon
26 vistas

0 comentarios

Ver todos los comentarios

¿Lograste tocar?

0 Tocaron 0 Aún no

¡Graba un video tocando He Thought Of Cars y envíanoslo!

00:00 / 00:00
Outros vídeos desta música
Repetir Calidad Automático
Outros vídeos desta música
00:00 / 00:00
Automático
OK