Black Jack Davey Intro

Bob Dylan

Composição de: Jörgen Elofsson / Mike Heron / Túlio Mourão
tono: C
Dm, F, C

Intro
|-----------------------------1-------------------|
|-----------------------------3-------------------|
|--------0----------------0---2------------0------|
|----1-3---1----------1-3---1-0--------1-3---1----|
|--3---------3--0h3-3------------0h3-3---------3--|
|-------------------------------------------------|

|------------1-1-1-1-1-1-1------------------|
|------------3-3-3-3-3-3-3------------------|
|------------2-2-2-2-2-2-2----3p0-----------|
|--------1-0-0-0-0-0-0-0-0--5-----3p0-------|
|--0h3-3------------------------------6-3~--|
|-------------------------------------------|

Bassier Intro
|-----------------------------1-------------------|
|-----------------------------3-------------------|
|-----------------------------2-------------------|
|--------0----------------0---0------------0------|
|----1-3---1----------1-3---1----------1-3---1----|
|--3---------3--0h3-3------------0h3-3---------3--|

|------------1-1-1-1-1-1-1--------------3~--|
|------------3-1-1-1-1-1-1--------------3~--|
|------------2-2-2-2-2-2-2--------------3~--|
|------------0-3-3-3-3-3-3----3p0-------5~--|
|--------1-0----------------5-----3p0---5~--|
|--0h3-3------------------------------6-3~--|
 
Página 1 / 1

Letras y titulo
Acordes y artista

restablecer los ajustes
OK