Cifra Club

Aprenda

Ambush In The Night

Bob Marley & The Wailers

Tab de bajo: Principal
Versos:

G|----------------------------------------------------------| 
D|--4-57----------------------------------------------------| 
A|-------5--------------5-5------------2-2---------2-2------| 4x 
E|---------5-55-------7-----77-------3-----33----3-----33---| 
 
G|--------------------------------------------------------------|
D|----579---------579-------------------------------------------|
A|-77----7----77-----7------------7-----7----7------------------|
E|---------------------------55----55----55---555---------------|
  they say what we know ,          is just what they teach us  

G|-------------------------------------------------------------------|
D|----579--------579-----------7-----7----7--------------------------| 
A|-77----7----77----7-----55----55----55---555--------5----5----5----| 
E|------------------------------------------------33---33---33---333-| 
      and we're so ignorant, 
                        cause every time mak'em richest,  
                                                 through political strategy  

G|-------------------------------------------------------------------|
D|----579--------579-------------------------------------------------| 
A|-77----7----77----7----------5-----5-----5----------7----7----7----| 
E|------------------------33----33----33----333---55---55---55---555-| 
      they keep us hungry, 
                          and when you gonna get some food, 
                                                  you brother got to be                      
                                                             your enemy,   
                                                      
Refrão:

G|-------------------------------------------------------------------|
D|-------4----------4------------------------------------------------| 3x
A|-----57---------57----------5--52--------7--74---------------------|
E|-77-----7----77----7-----33-------3---55-------5-------------------|
Compositor Fred Dos Raimundos
Colaboración y revision:
  • Everton Damascena
12 reproducciones

0 comentarios

Mostrar mais comentários

¿Conseguiste tocar?

0 Tocaron 0 Ainda não

Grave um vídeo tocando Ambush In The Night e mande pra gente!

00:00 / 00:00
outros vídeos desta música
repetir qualidade Automático
Outros vídeos desta música
00:00 / 00:00
Automático
OK