Helter Skelter

Bon Jovi

Composição de: The Beatles
tono: E
Intro:

E|-----0--(repete)--------------------------------------------------|
B|--12/3--(repete)--------------------------------------------------|
G|------------------------------------------------------------------|
D|------------------------------------------------------------------|
A|------------------------------------------------------------------|
E|------------------------------------------------------------------|
           When I get to the bottom I go back to the top of the

E|-----0--(repeat)--------------------------------------------------|
B|-----2--(repeat)--------------------------------------------------|
G|------------------------------------------------------------------|
D|------------------------------------------------------------------|
A|------------------------------------------------------------------|
E|------------------------------------------------------------------|
    slide, where I stop and I turn and I go for a

                                                   G
E|-----0--(repeat)--------------------------------------------------|
B|-----1--(repeat)--------------------------------------------------|
G|------------------------------------------------------------------|
D|------------------------------------------------------------------|
A|------------------------------------------------5--5--6--6--------|
E|------------------------------------------------3--3--3--3--------|
    ride, till I get to the bottom and I see you again.

                            E
E|------------------------------------------------------------------|
B|------------------------------------------------------------------|
G|------------------------------------------------------------------|
D|------------------------------------------------------------------|
A|--5--5--6---------6------2--2--2--2--3/2--2--2--2-----------------|
E|--3--3--3---------3------0--0--0--0--1--0--0--0-------------------|
          Yeah yeah  yeah!

Verso:
     E
Well do you don't you want me to make you

I'm coming down fast but don't let me break you
                                 G
Tell me tell me tell me come on tell me the answer
          A                                E
Well you may be a lover but you ain't no dancer.

Refrão:
           A
E|------------------------------------------------------------------
B|------------------------------------------------------------------
G|------------------------------------------------------------------
D|----------2---2---4---4--5--4--2----------------------------------
A|----------0---0---0---0-----------5--4--2--0----------------------
E|------------------------------------------------------------------
    Well, Helter Skelter

    E
E|------------------------------------------------------------------
B|------------------------------------------------------------------
G|------------------------------------------------------------------
D|------------------------------------------------------------------
A|---2---2---4---4--5--4--2-----------------------------------------
E|---0---0---0---0-----------5--4--2--0-----------------------------
    Helter skelter

    A                                    E
E|------------------------------------------------------------------
B|--------------------------------------------5b(7)--3--5-----------
G|------------------------------------------------------------------
D|---2---2---4---4--5--4--2-----------------------------------------
A|---0---0---0---0-----------5--4--2--0-----------------------------
E|------------------------------------------------------------------
    Helter skelter                        Yeah

E|----------------------7--7--15b(17)--15b(17)--b(17)15-------------
B|----------------------0--0----------------------------------------
G|----------------------9--9----------------------------------------
D|------------------------------------------------------------------
A|------------------------------------------------------------------
E|------------------------------------------------------------------
    'Cos here she comes

E|--------------------------------------------------------------------------
B|--b(17)15b(17)15---------------13b(14)------------------b(17)15-----------
G|------------------b(14)12---------------b(14)12b(14)12-----------12-------
D|---------------------------14----------------------------------------14~--
A|--------------------------------------------------------------------------
E|--------------------------------------------------------------------------

E|--12--15b(17)--b(17)15--12------12----------------------------------------
B|----------------------------15------1510-----10b(12)--b(12)10--8----------
G|-------------------------------------------9-----------------------7--9---
D|--------------------------------------------------------------------------
A|--------------------------------------------------------------------------
E|--------------------------------------------------------------------------
Página 1 / 1

Letras y titulo
Acordes y artista

restablecer los ajustes
OK