Darlington County

Bruce Springsteen

Composição de: Bruce Springsteen
tono: G
 G
----------|-----------|--------------|-----------------|----------|---------------|
----------|-----------|--------------|-----------------|----------|---------------|
-s--7-7---|-7-7---9-7-|-s--7-7--s----|-----------------|-s--7-7---|-7-7---9-7-----|
--9-----9-|-----9-----|--9-----9-7-5-|-7-5---5--p-h-p--|--9-----9-|-----9-----9-7-|
----------|-----------|--------------|-----7---7-5-7-5-|----------|---------------|
----------|-----------|--------------|-----------------|----------|---------------|

                                  C                    F                  G
--------------|-----------------|----------|---------|------------------|----------|
--------------|-----------------|----------|---------|------------------|----------|
-s--7-7--s----|-----------------|----------|---------|------------------|-s--7-7---|
--9-----9-7-5-|-7-5---5--p-h-p--|-s--5-5---|-5-5-7-5-|-s--5-5-----------|--9-----9-|
--------------|-----7---7-5-7-5-|--7-----7-|---------|--7-----7-5-3---3-|----------|
--------------|-----------------|----------|---------|--------------5---|----------|

---------------|--------------|-------|
---------------|--------------|-------|
-7-7---9-7-----|-s--7-7--s----|-------|
-----9-----9-7-|--9-----9-7-5-|-7-5-5-|
---------------|--------------|-------|
---------------|--------------|-------|

G                       C   G
Driving into Darlington County
                     C           G
Me and Wayne on the Fourth of July
                        C   G
Driving into Darlington County
                               C    G
Lookin' for some work on the county line
C                           F C
We drove down from New York City
                                               F         C
Where the girls are pretty but they just wanna know your name
G                       C G
Driving into Darlington City
                               C        G
Got a union connection with an uncle of Wayne's
         D
We drove eight hundred miles without seeing a cop
                                                C
We got rock'n'roll music blasting off the t-top

       G                        C  G
Singing sha-la la, sha la la la la la
             C     G
sha-la la la la la la
                        C  G
sha-la la, sha-la la la la la
             C     G
sha-la la la la la la

G                                C     G
Hey little girl, standing on the corner
                           C         G
Today's your lucky day for sure, all right
                                   C    G
Me and my buddy, we're from New York City
                                        C         G
We got two hundred dollars, we want to rock all night
      C                         F      C
Girl, you're lookin' at two big spenders
                                           F      C
Why, the world don't know what me and Wayne might do
    G                                  C      G
Our pa's each own one of the World Trade Centers
                                  C           G
For a kiss and a smile I'll give mine all to you
      D
C'mon baby, take a seat on the fender, it's a long night
                                   C
Tell me, what else were you gonna do?

Just me and you, we could ...

       G                        C  G
Singing sha-la la, sha la la la la la
             C     G
sha-la la la la la la
                        C  G
sha-la la, sha-la la la la la
             C     G
sha-la la la la la la


(Sax Solo) | C | C | C | G | D | D | G |


G                           C   G
Little girl, sittin' in the window
                        C      G
Ain't seen my buddy in seven days
                           C    G
County man tells me the same thing
                        C        G
He don't work, and he don't get paid
        C                         F    C
Little girl, you're so young and pretty
                           F        C
Walk with me and you can have your way
G                               C   G
Then we'll leave this Darlington City
                      C        G
For a ride down that Dixie Highway

       G                        C  G
Singing sha-la la, sha la la la la la
             C     G
sha-la la la la la la
                        C  G
sha-la la, sha-la la la la la
             C     G
sha-la la la la la la

G                         C   G
Driving out of Darlington County
                           C           G
I seen the glory of the comin' of the Lord.
                           C   G
Driving out of Darlington County
                                          C               G
Seen Wayne handcuffed to the bumper of a state trooper's Ford.

       G                        C  G
Singing sha-la la, sha la la la la la
             C     G
sha-la la la la la la
                        C  G
sha-la la, sha-la la la la la
             C     G
sha-la la la la la la
Página 1 / 1

Letras y titulo
Acordes y artista

restablecer los ajustes
OK