Downbound Train

Bruce Springsteen

Composición de: Bruce Springsteen
tono: F
tabbed by: zep123
email: *

e--------------------|-----------------|-----------------|
b--------------------|-----------------|-----------------|
g-----0--0-----------|--3--3-----------|--5--5-----------|
d-----0--0-----------|--3--3-----------|--5--5-----------|
a-----------------1--|--------3--5--3--|--------3--5--3--|
e--3--------1--3-----|-----------------|-----------------|

e--------------|--------------|
b--------------|--------------|
g--5--5--------|--5--5--5--5--|
d--5--5--------|--5--5--5--5--|
a--3--3--1--1--|--5--3--5--3--|
e--------------|--------------|

e--------------------|-----------------|-----------------|
b--------------------|-----------------|-----------------|
g-----0--0-----------|--3--3-----------|--5--5-----------|
d-----0--0-----------|--3--3-----------|--5--5-----------|
a-----------------1--|--------3--5--3--|--------3--5--3--|
e--3--------1--3-----|-----------------|-----------------|

e--------------|--------------|
b--------------|--------------|
g--5--5--------|--5--5--5--5--|
d--5--5--------|--5--5--5--5--|
a--3--3--1--1--|--5--3--5--3--|
e--------------|--------------|


For the chorus, I just strum this (according to the rhythm of the song):

e--3--|-----|--0--|
b--3--|--3--|--1--|
g--0--|--3--|--0--|
d--0--|--3--|--2--|
a--2--|--1--|--3--|
e--3--|-----|-----|
Página 1 / 1

Letras y titulo
Acordes y artista

restablecer los ajustes
OK