Come As You Are

Caetano Veloso

Composición de: Dave Grohl / Krist Novoselic / Kurt Cobain
tono: D
PM................................
E|-------------------------------|
B|-------------------------------|
G|-------------------------------|
D|-------------------------------|
A|---------5---5---------7-----7-|
E|-5-5-6-7---7---7-7-6-5---5-5---|

(refrão)
E|-------------|-----------------|
B|-------------|-----------------|
G|-------------|-----------------|
D|----9------9-|-----12-------12-|
A|----9------9-|-----12-------12-|
E|-7--7---7--7-|-10--10---10--10-|

B5     D5      B5     D5
Memória    Memoria

(solo - 2x)
PM................................
E|-------------------------------|
B|-------------------------------|
G|-------------------------------|
D|-------------------------------|
A|-------5---5---------7-----7---|
E|-5-6-7---7---7-7-6-5---5-5-----|

(solo)
E|-------------------------------|
B|-------------------------------|
G|-------------------------------|
D|-4---7-7/9-4-----(4)--7-9-9/11-|
A|-------------------------------|
E|-------------------------------|

E|-------------------------------|
B|-------------------------------|
G|-------------------------------|
D|-4--7-7/9-4---(4)-7-9-9/11-9-7-|
A|-------------------------------|
E|-------------------------------|
Página 1 / 1

Letras y titulo
Acordes y artista

restablecer los ajustes
OK