Olita Del Altamar

Café Tacvba

Composición de: Emmanuel Del Real
tono: G
Intro:

E|-----------------------7-10-7--7-7---------15-12-|
B|-----------------7-8---------------10---12-------|
G|----9---9--9-7-9---------------------------------|
D|-------------------------------------------------|
A|-------------------------------------------------|
E|-------------------------------------------------|

E|--------------------------------|
B|-15-12--------------------------|
G|-------14-12----------12--------|
D|-------------14-12-14----14--14-|
A|--------------------------------|
E|--------------------------------|

Verso:

Em                  G        Am           Bm      Em
Ay olita del altamar dime si algún día tu volverás          (2x)

G           Am     Em G         Am     Em
Ay olita del altamar ay olita del altamar
         Am         Bm     Em
dime si algún día regresarás
G           Am     Em G         Am     Em
Ay olita del altamar ay olita del altamar
         Am          Bm     Em G Am Bm
dime si algún día tu volverás

Em                G      Am           Bm          Em
Arenita de mi playa si algún día con la espuma del mar
Em               G         Am          Bm        Em
Arenita de mi playa si algún día la miras regresar
Em              G            Am          Bm       Em
Caminito de la vida mira que me has traído hasta acá
Em                G            Am     Bm      Em
Caminito de mi vida hasta donde tu me llevarás

G            Am     Em G         Am     Em
Ay olita del altamar ay olita del altamar
          Am       Bm       Em
si en mi corazón tu rompieras
G          Am     Em G         Am      Em
Ay olita del altamar ay olita del altamar
           Am         Bm  Em
si en tu corazón yo viviera

Puente: Em  G  Am  Bm

E|----------------------|-7-10-7--7-7---------15-12-|
B|-----------------7-8--|-------------10---12-------|
G|----9---9--9-7-9------|---------------------------|
D|----------------------|---------------------------|
A|----------------------|---------------------------|
E|----------------------|---------------------------|

E|-------------------------------|
B|-15-12-------------------------|
G|-------14-12----------12-------|
D|-------------14-12-14----14--14:
A|-------------------------------|
E|-------------------------------|

Verso:

Em                  G       Am         Bm          Em
Ay olita del altamar con el viento yo fui y te busqué
Em                 G           Am          Bm      Em
Ay olita del altamar con el tiempo después naufragué

G           Am    Em  G        Am       Em
Ay olita del altamar ay olita del altamar
        Am          Bm      Em
dime si algún día regresarás
G           Am     Em G        Am      Em
Ay olita del altamar ay olita del altamar
         Am         Bm      Em
dime si algún día tu volverás.

E|----------------------|-7-10-7--7-7---------15-12-|
B|-----------------7-8--|-------------10---12-------|
G|----9---9--9-7-9------|---------------------------|
D|----------------------|---------------------------|
A|----------------------|---------------------------|
E|----------------------|---------------------------|

E|--------------------------------|
B|-15-12--------------------------|
G|-------14-12----------12--------| 5x
D|-------------14-12-14----14--14-|
A|--------------------------------|
E|--------------------------------|
Página 1 / 1

Letras y titulo
Acordes y artista

restablecer los ajustes
OK