Una mañana

Café Tacvba

Composición de: Claire Fisher
tono: Cm
E|-----------------------------------------------|
B|-7-7-5-7---5-7-8-7-5---7-7-5-7---5-7-8-7-5/10--|
G|-----------------------------------------------|
D|-----------------------------------------------|
A|-----------------------------------------------|
E|-----------------------------------------------|

E|---------------------------------------------------------|
B|-10------------------------------------------------------|
G|----10-----------------------------7-5-7-8-7-8-9-11---12-|
D|-------12----------------12----12-----------------------|
A|----------1210-10-10-12----11---------------------------|
E|---------------------------------------------------------|

  (Fast Pick)
E|---------------------------------------------------------|
B|--------------------------------------15-----------------|
G|-(12-12-12-12)--12-14-15-14-12-12/14------17-15-14-13-12-|
D|---------------------------------------------------------|
A|---------------------------------------------------------|
E|---------------------------------------------------------|

                                                  (Fast Pick)
E|----------------------------------------------------------------|
B|-15--13------13-------------12-14-12/13----------(15-15-15-15)-|
G|---------14------15--12--15--------------15--12-----------------|
D|----------------------------------------------------------------|
A|----------------------------------------------------------------|
E|----------------------------------------------------------------|
Página 1 / 1

Letras y titulo
Acordes y artista

restablecer los ajustes
OK