Quatro Vezes Você

Capital Inicial

Composição: Alvin L / Dinho Ouro Preto
Intro:

G --------------------------
D --------------------------
A -------2------------------
E -0--3-----3/5-5-5-4/5-5-5-

Levada da Musica: ( E | A )
Deixar notas soando.
G ----------------
D ----------------
A --------0h-4----
E -0h-3-----------

Riff (Parece muito.... / Parece estranho ....) ( G | A )

G -------------------------------
D -------------------------------
A -------------------------------
E -3-3-3-3-3-3-3-5-5-5-5-5-5-5-5-

Refrão ( G | B | G | B | C | D | A | A )

G --------------------------------------------------------
D --------------------------------------------------------
A -----------------------------------------3-3-3-3-5-5-5-5
E -3/12\3--3-3-3-3-7-7-7-7-3-3-3-3-7-7-7-7----------------

Continuação.

G ------------------------------------------
D ------------------------------------------
A -12-12-12-12-12-12-12-12------------------
E ------------------------------------------

Durante o Solo:
Igual a intro.
G --------------------------
D --------------------------
A -------2------------------
E -0--3-----3/5-5-5-4/5-5-5-

Página 1 / 1

Letras y titulo
Acordes y artista

restablecer los ajustes
OK