Chico Granada

Carajo

Composição: Marcelo Corvalán / Hernán Langer / Andrés Villanova
Tom: C
Afinação: CGCFAD

Riff 1
|----------------------|-------------------|-------------------|------------|
|----------10-10-10-10-|-------------------|-------------------|--------8---|
|----------------------|--------9-9-9h10p9-|--------9-9-9h10p9-|----7-------|
|--0-0-0-0-------------|--0-0-0------------|--0-0-0------------|--0---0-----|
|----------------------|-------------------|-------------------|------------|
|----------------------|-------------------|-------------------|------------|

|----------------------|-------------------|-----------------|
|----------10-10-10-10-|-------------------|-----------------| Caso haja repetição desse riff,
|----------------------|--------9-9-9h10p9-|--------9-9-9-9--|  nesse lugar entra o último
|--0-0-0-0-------------|--0-0-0------------|--0-0-0----------|  segmento da linha acima e só
|----------------------|-------------------|-----------------|  repete essa 2ª linha, sendo cada
|----------------------|-------------------|-----------------|  repetição 2x essa linha

Transição
|-----------|
|-----------| Esse pedaço é só
|-----------|  uma transição entre
|--555/777--|  o riff 1 e o refrão,
|--555/777--|  onde ele põe distorção
|--555/777--|  pesada.

Refrão
|---------------------------|--------------------|
|---------------------------|--------------------|
|---------------------------|--------------------|
|--000-12121212---000-3333--|--8888888-555/7777--|
|--000-12121212---000-3333--|--8888888-555/7777--|
|--000-12121212---000-3333--|--8888888-555/7777--|

Bridge
|-------------------|--------------------|
|-------------------|--------------------|
|-------------------|--------------------|
|----3p2------------|----3p2-------------|
|----------3---3h5--|----------3h5------0|
|--0-----0---0------|--0-----0-----3h5--0|


Ordem(recomendo ouvir a música):
Riff 1______x1
Transição___x1
Refrão______x2
Riff 1______x2
Transição___x1
Refrão______x2
Bridge______x1
Riff 1______x2
Bridge______x1
Refrão______x4
Bridge______x4
Solo________x1
Refrão______x4
Bridge______x4
Página 1 / 1

Letras y titulo
Acordes y artista

restablecer los ajustes
OK