Flor de fuego

Caramelos De Cianuro

Composición de: Caramelos de Cianuro
tono: F
Intro:

   F                         Am            A#
E|------------8-9-----| |-5---5---5---5-6-|
B|--6--6----6-----8-6-| |-5-----------5-6-|
G|-5------5-----------| |-5-----------5-7-|
D|--------------------| x3 |-----------------|
A|-8------------------| |-----------------|
E|--------------------| |-5-----------5-6-|


Estrofa 1:

F           Am            Dm
 No eres el agua eres la sed
              Dm|
fuiste mi llanto ya no tanto
Gm         A#                     C#7
  suele salir por la puerta de atras
        C                   F
sino recibes mas de lo que das


Estrofa II

F         Am            Dm
 Eres mi mal eres mi herida
       Dm|
mi dulce recaida
 Gm                    Am
son tus cabellos cien mil caracoles
A#               C5         C#5   D5
  y vez de ojos tienes dos soles


Coro:

D5          C#5     F5
  Nunca me diste tu alma
                     A#5
cuando me dabas tu cuerpo
  C5  D5         C5|
flor de fuego

   Am7
E|-------|
B|-----1-|
G|---0---|
D|-2-----|
A|-------|
E|-------|


G5          F#5           F5
  Dame tan solo una razon
             C5           D5
o es que no tienes corazon
              A#5 C5|
siempre quien mas ama termina perdiendo


Estrofa III

F             Am             Dm
 Y ahora que vienes y que vas
                   Dm|
al no poder quererte y te quiero mas
Gm               A#                   C#7
  conocerte por dentro fue mi gran anhelo
         C
y encontre solo hielo


Estrofa IV

F             Am           Dm
 Por cada instante que te tengo
           Dm|
son un millon que te pierdo
Gm          Am          A#5
  y cuando menos me los espero
             C5   C#5    D5
viene el rechazo mas certero

Coro x 1

Interlude:
   F                                              C5 C#5 D5
E|------------8-9-----| |----5-6-8-9---8-6-8---8---9--10-|
B|--6--6----6-----8-6-| |--6-----------------------------|
G|-5------5-----------| |-5------------------------------|
D|--------------------| x2 |--------------------------------|
A|-8------------------| |-8------------------------------|
E|--------------------| |--------------------------------|

Coro x 1


Outro:

F5          C#5     D5
  Nunca me diste tu alma
           D#5      A#5
cuando me dabas tu cuerpo
          C#5
flor de fuego

F5          C#5           D5
  Dame tan solo una razon
             D#5        A#5          C#5
o es que no tienes corazon ... Corazon

******************************************
tenia tiempo sin colaborar con LaCuerda
pero aqui estoy de nuevo motivado por una
amiga muy especial.
Esta es para ti... mi amiga KEYA 
Página 1 / 1

Letras y titulo
Acordes y artista

restablecer los ajustes
OK