O que não se pode explicar aos normais

Catedral

Composición de: Cezar / Julio / Kim
tono: D
[Intro] D  Bm  A  G
        D  Bm  A  G  

   D                                     Bm                      A           G                    
e|--0-2p-0-----------------------5-------------------0-2p-0--------0---0-------------------------|
B|-----------3---3--3-----5p--7------7s->--3---3--------------3----------------------------------|
G|---------------------------------------------------------------------------------------4--5--7-|
D|---------------0--0---------------------------------------------------------2--4--5------------|
A|-----------------------------------------2---2-------------------0---0-------------------------|
E|-----------------------------------------------------------------------------------------------|

(baixo)

G|---------------------------------------------------------------------------------------------| 
D|---------------------------------------------------------------------------------------------|
A|--5---5-5-4---2---2-2---0----4p-5-4--0-----------------2p-3p-5--------------5----------------|
E|----------------------------------------0-----0p-2p-3------------2--2--0---------------------|

D
Sobre o amor
Bm
E o desamor
        A      G 
Sobre a paixão
        D
Sobre ficar
          Bm
Sobre desejar
       A       D
Como saber te amar?
         D
Sobre querer
           Bm
Sobre entender
       A     G  D  
Sem esquecer
           D
Sobre a verdade 
       Bm
E a ilusão
         A      D
Quem afinal é você?
        F#m         G        
Quem de nós vai mostrar
   Bm           A
Realmente o que quer
     D                Bm
Um coração, nesse furacão
       A         D
Ilhado onde estiver
Bm       F#m         G      D     A
O meu querer é complicado demais
Bm          F#m              G     D      A
Quero o que não se pode explicar aos normais
           D
Sobre o porquê 
             Bm
De tantos porquês
     A      G  D
E responder 
      D
Entre razão
       Bm
E a emoção
        A    D   
Eu escolhi você
Página 1 / 1

Letras y titulo
Acordes y artista

restablecer los ajustes
OK