Como Um Anjo

César Menotti & Fabiano

Composición de: Lucas Robles / Roberto Merli
tono: Em
[Intro] G  C9  G  C9  G  C9  G

[Primeira Parte]

        G    C9  G
Como um anjo
                        D
Você apareceu na minha vida
            Am
Uh, como um anjo
               C          D
Repleto de ternura de paixão

Oh, oh, oh, oh

        G    C9  G
Como um anjo
                          D
Encanto,sedução doce aventura
             Am
Huum, que loucura
              C                D  D#º
Você desabrochando no meu coração

[Segunda Parte]

         Em
Linda menina com olhar inocente
                       D
Malícia desejo e tentação

Que me cobre de amor e carícia
                C
Vencendo a solidão
 C  G/B  Am  G       D
Só vo___cê pra me fazer feliz

Ai ai ai ai ai ai

[Refrão]

G              D/F#          Em
Anjo a luz do sol tá me acordando
                          C
Não vá embora, estou te amando
       Am         D
Por favor não me deixe só

Ai ai ai ai ai ai

G                 D/F#    Em
Anjo não quero abrir meus olhos
                         C
Quero seguir vivendo um sonho
           D        G  D
De sermos só você e eu

[Solo] G  Em  C  D  G

Parte 1 de 4
E|----------------------------------------------------|
B|-10/12~--12~--12~-12~-------------------------------|
G|----------------------------------------------------|
D|----------------------------------------------------|
A|----------------------------------------------------|
E|----------------------------------------------------|

Parte 2 de 4
E|----------------------------------------------------|
B|-10/12-10-8-7-8-------------------------------------|
G|----------------9----9p7---7~--9-7-9~---------------|
D|-------------------------9--------------------------|
A|----------------------------------------------------|
E|----------------------------------------------------|

Parte 3 de 4
E|----------------------------------------------------|
B|----------------------------------------------------|
G|-4-5-7-5-4-5~---4-4-4-------------------------------|
D|----------------------7-5-7~------------------------|
A|----------------------------------------------------|
E|----------------------------------------------------|

Parte 4 de 4
E|----------------------------------------------------|
B|----------------------------------------------------|
G|-----------5--4----4-4-4----------------------------|
D|-5--7------7--5----5-5-5----------------------------|
A|----------------------------------------------------|
E|----------------------------------------------------|

[Segunda Parte]

         Em
Linda menina com olhar inocente
                        D
Malícia, desejo e tentação

Que me cobre de amor e carícia
                C
Vencendo a solidão
 C  G/B  Am  G       D
Só vo___cê pra me fazer feliz

Ai ai ai ai ai ai

[Refrão]

G              D/F#          Em
Anjo a luz do sol tá me acordando
                          C
Não vá embora, estou te amando
       Am         D
Por favor não me deixe só

Ai ai ai ai ai ai

G                 D/F#    Em
Anjo não quero abrir meus olhos
                         C9
Quero seguir vivendo um sonho
           D9       C9
De sermos só você e eu

[Final] D9  D#9  F9  D9  G
Página 1 / 1

Letras y titulo
Acordes y artista

restablecer los ajustes
OK