Tô Morrendo de Saudade

César Menotti e Fabiano

tono: G
[Intro] G  D  A7  Bm 
        Em  G  A7  G 
        D  F#  A7/E  D

E|-----------------------------------------------------|
B|-----------------------------------------------------|
G|-----------------------------------------------------|
D|-----4-4-4-4-4-5-7-7--5--5-5-5-5-5-4-2--5--4--2--0---|
A|-----------------------------------------------------|
E|-----------------------------------------------------|

E|----------------------------------------------2------|
B|----------------------------------------------3------|
G|------------------------------4-2-----4-2-----2------|
D|-----4-4-4\5/4-2-0-2--2-2-2-4-5-4-2-4-5-4-2-0-0------|
A|-----------------------------------------------------|
E|-----------------------------------------------------|

D
Quando a gente terminou
Nosso caso de amor
                     A11   A
Eu pensei que estava livre
                     Em
Que eu iria me dar bem
                    Asus
Encontrando outro alguém
                           D   Asus
Que me desse o que eu nao tive
               D
Eu saí pelo escuro
                      D7
Dando a cara contra o muro
                 G
Inventando mil paixões
                D/F#
Eu brinquei de ser feliz
                     A/E
Na verdade o que eu fiz
              D
Foi viver desilusões

[Refrão]

                      G    A/G
Eu tô morrendo de saudade
                     D/F#  Bm7
Eu tô pedindo pra voltar
                    Em
Preciso tanto lhe dizer
               G
Que longe de voce
           A          D
Nao dei conta de aguentar

              D
Muitas bocas eu beijei
                   D7
Te confesso nao gostei
                        G
Poisa nao tinha o mesmo gosto
                  D/F#
Eu tentei mil aventuras
                     A/E
Mas por dentro da moldura
                D
Eu só via o seu rosto

[Refrão]

                      G    A/G
Eu tô morrendo de saudade
                     D/F#  Bm7
Eu tô pedindo pra voltar
                    Em
Preciso tanto lhe dizer
               G
Que longe de voce
           A          D
Nao dei conta de aguentar

[Final] G  Bb  C  D
Página 1 / 1

Letras y titulo
Acordes y artista

restablecer los ajustes
OK