Frog Theme

Chrono Trigger

tono: C
(lead guitar)

(intro)
E |----------------------------------------------|
B |----------------------------------------------|
G |---------------------3~---4---3-----3---------|
D |--7--5--7-------7----------------7-----4~-----|
A |------------7---------------------------------|
E |----------------------------------------------|

|-----------------------------------------------|
|-----------------------------------------------|
|---------------------3----4---3--4--6--3~------|
|--7--5--7-------7------------------------------|
|-----------7-----------------------------------|
|-----------------------------------------------|

|-----------------------------------------------|
|-----------------------------------------------|
|---------------------3----4---3-----3----------|
|--7--5--7-------7----------------7-----4~------|
|-----------7-----------------------------------|
|-----------------------------------------------|

|-----------------------------------------------|
|-----------------------------------------------|
|-----------3----4----3-------------------------|
|--7--5--7-----------------7--5--7--7--5--7--7--|
|-----------------------------------------------|
|-----------------------------------------------|

(refrão)
|-----------------------------------------------|
|------------------------/9-----7~--------------|
|--8----8--8-----6--8~---------------8~---------|
|-------------10------------------------10---7~-|
|-----------------------------------------------|
|-----------------------------------------------|

|-------------------------------------|
|-----------------------------------7-|
|------------------6-----6--8--6--8---|
|-7--9--10--9--10----10---------------|
|-------------------------------------|
|-------------------------------------|

|-----------------------------------------------------------------|
|-----------------------/9--11~--12--11--9---7-----9~----9/11~----|
|--8----8--8-----6--8~--------------------------------------------|
|-------------10--------------------------------------------------|
|-----------------------------------------------------------------|
|-----------------------------------------------------------------|

|-----------------------------------------------------|
|--12----12--12--11--9--7---------9----9--9--7--------|
|----------------------------8------------------9--8~-|
|-----------------------------------------------------|
|-----------------------------------------------------|
|-----------------------------------------------------|

|----------------------------------------------|
|--12----12--12--11--9--7---------9~---/11~----|
|---------------------------8------------------|
|----------------------------------------------|
|----------------------------------------------|
|----------------------------------------------|

|-----------------------------------------------------|
|--12----12--12--11--9--7---------9----9--9--7--------|
|----------------------------8------------------9--8~-|
|-----------------------------------------------------|
|-----------------------------------------------------|
|-----------------------------------------------------|

|--------------------------------------------------------------|
|--12----12--12--11--12--/14---11--11~----9--7--9--9--7--9--9--|
|--------------------------------------------------------------|
|--------------------------------------------------------------|
|--------------------------------------------------------------|
|--------------------------------------------------------------|
(repete refrão)
Página 1 / 1

Letras y titulo
Acordes y artista

restablecer los ajustes
OK