Blues de la ventana

Ciro Y Los Persas

tono: C#m
E|-----------------------------|
B|-----------------------------|
G|-------------------5/---7v---|
D|----------5v-5/-7------------|
A|-5v--5/-7--------------------|
E|-----------------------------|

E|-----------------------------|
B|-----------------------------|
G|--16| e---15-16-15-16v---------|
D|-----------------------------|
A|-----------------------------|
E|-----------------------------|

E|----------------------------|
B|------------------16--------|
G|-17| e17e17e17e--18----16v----|
D|----------------------------|
A|----------------------------|
E|----------------------------|

E|----------------------------------------|
B|----------------------------------------|
G|---------14v-12-13v--12v--10v---8v--8/10|
D|-12/-14| e--------------------------------|
A|----------------------------------------|
E|----------------------------------------|

E|------------------------------------|
b|9/10-9/10-9/10-9/10---12/11---12v---|
G|------------------------------------|
D|------------------------------------|
A|------------------------------------|
E|------------------------------------|

E|--------10------------------------------|
b|12---10----12--10-----------------------|
G|------------------10-12-----------------|
D|-------------------------10-9-7--5--7v--|
A|----------------------------------------|
E|----------------------------------------|

E|-----------15| e-----------------17/0-----|
B|--------14------15/17----15v------------|
g|12/14-----------------------------------|
D|----------------------------------------|
A|----------------------------------------|
E|----------------------------------------|



Se desgarra el cielo, se deshace el sol,
y hay un solo anhelo, es estar con vos.
A través de la ventana.


Se hace astillas, mi ilusion.
(CON EL DEDAL DE SLIDE)

E|------------------------|
B|----------------/7------|
g|1/2s--4/5--4/---/7------|
D|------------------------|
A|------------------------|
E|------------------------|



Y aunque cuides tu lugar y lo que otros puedan ver,




E|----------------------------------------|
B|-7/----------10/-------------13s--------|
G|-7/----------10/-------------13s--------|
D|----------------------------------------|
A|----------------------------------------|
E|----------------------------------------|


que me importa los que dicen que lo nuestro no esta bien,

E|----------------------------------------|
b|2/-------5s/--------2s------------------|
g|2/-------5s/--------2s------------------|
D|----------------------------------------|
A|----------------------------------------|
E|----------------------------------------|



quién controla lo que siente el corazón,

E|----------------------------------------|
B|-2/-----------------5s------------/7----|
G|-2/-----------------5s------------/7----|
D|----------------------------------------|
A|----------------------------------------|
E|----------------------------------------|



quién lo controla, que nada siente.

E|----------------------------------------|
b|10/--9/--7/8---8/7----3/5s--5/7s--------|
g|10/--9/--7/8---8/7----3/5s--5/7s--------|
D|----------------------------------------|
A|----------------------------------------|
E|----------------------------------------|

IMPORTANTE: Esta parte se hace en dos guitarras,
 intercalando las cuerdas
Ej: la 2da cuerda es la primera guitarra
 (punteadora)y la 3ra la segunda.

Esto da el efecto de que si se escucha el tema
en estereo o un solo parlante, se nota la diferencia.


Quién controla lo que siente el corazón.

Fingiste locura y ser tan liberal,
pero si te apuran, sos la más formal,
los doctores de apellidos,
que este chico puede más.

Y aunque cuides tu lugar y lo que otros puedan ver,
que me importa los que dicen que lo nuestro no esta bien,
quién controla lo que siente el corazón,
quién lo controla, yo te aseguro que nada siente.
Quién controla lo que siente el corazón.
Página 1 / 1

Letras y titulo
Acordes y artista

restablecer los ajustes
OK