Ghost Story

Coldplay

Composição de: Chris Martin, Guy Berryman, Jon Buckland, Will Champion
Introdução: sem Contrabaixo;


Verso 1: sem Contrabaixo;


Verso 2: sem Contrabaixo;


1º Refrão (1/4):
G|-----------------------------------------------------|
D|-----------------------------------------------------|
A|-5-5--5--5--3-3--------------------------------------|
E|-----------------3--3--------------------------------|

1º Refrão (2/4):
G|-----------------------------------------------------|
D|-----------------------------------------------------|
A|-5-5--5--5--3-3--------------------------------------|
E|-----------------3--3--------------------------------|

1º Refrão (3/4):
G|-----------------------------------------------------|
D|-----------------------------------------------------|
A|-5-5--5--5--3-3--------------------------------------|
E|-----------------3--3--------------------------------|

1º Refrão (4/4):
G|-----------------------------------------------------|
D|-----------------------------------------------------|
A|-5-5--5--5--3-3--------------------------------------|
E|-----------------3--3--------------------------------|


Pós-Refrão: sem Contrabaixo;


Verso 3: sem Contrabaixo;


Verso 4: sem Contrabaixo;


2º Refrão (1/5):
G|-----------------------------------------------------|
D|-----------------------------------------------------|
A|-5-5--5--5--3-3--------------------------------------|
E|-----------------3--3--------------------------------|

2º Refrão (2/5):
G|-----------------------------------------------------|
D|-----------------------------------------------------|
A|-5-5--5--5--3-3--------------------------------------|
E|-----------------3--3--------------------------------|

2º Refrão (3/5):
G|-----------------------------------------------------|
D|-----------------------------------------------------|
A|-5-5--5--5--3-3--------------------------------------|
E|-----------------3--3--------------------------------|

2º Refrão (4/5):
G|-----------------------------------------------------|
D|-----------------------------------------------------|
A|-5-5--5--5--3-3--------------------------------------|
E|-----------------3--3--------------------------------|

2º Refrão (5/5):
G|-----------------------------------------------------|
D|-----------------------------------------------------|
A|-5-5--5--5--3-3--------------------------------------|
E|-----------------3--3--------------------------------|


Pós-Refrão: sem Contrabaixo;


Solo + Refrão (1/5):
G|-----------------------------------------------------|
D|-----------------------------------------------------|
A|-5-5--5--5--3-3--------------------------------------|
E|-----------------3--3--------------------------------|

Solo (2/5):
G|-----------------------------------------------------|
D|-----------------------------------------------------|
A|-5-5--5--5--3-3--------------------------------------|
E|-----------------3--3--------------------------------|

Refrão (3/5):
G|-----------------------------------------------------|
D|-----------------------------------------------------|
A|-5-5--5--5--3-3--------------------------------------|
E|-----------------3--3--------------------------------|

Refrão (4/5):
G|-----------------------------------------------------|
D|-----------------------------------------------------|
A|-5-5--5--5--3-3--------------------------------------|
E|-----------------3--3--------------------------------|

Refrão (5/5):
G|-----------------------------------------------------|
D|-----------------------------------------------------|
A|-5-5--5--5--3-3--------------------------------------|
E|-----------------3--3--------------------------------|
Página 1 / 1

Letras y titulo
Acordes y artista

restablecer los ajustes
OK