X.O.T(Xantagem Ocasional Tramada)

Cólera

tono: G
riff 1: A E* C D
|---------------------------------------| 
|---------------------------------------| 
|---------------------------------------| 
|------------9-9-9-9--5-5-5-5--7-7-7-7--|
|---7-7-7-7--7-7-7-7--3-3-3-3--5-5-5-5--|
|---5-5-5-5-----------------------------| 
riff 2 : G A#
|---------------------------------------| 
|---------------------------------------| 
|---------------------------------------| 
|---------------------------------------| 
|--5-5-5-5--8-8-------------------------| 
|--3-3-3-3--6-6-------------------------|
 riff 1 
Membros da desordem querem te enganar te fazer chantagem para te roubar 
riff 2 
eles te perseguem,eles te perseguem com: 
riff 1 
xantagem ocasional tramada, xantagem ocasional tramada ahhhhh 
te dão um sorriso para esconder todas as trapaças que querem fazer 
riff 2 
eles te perseguem,eles te perseguem com: 
riff 1 
chantagem ocasional tramada, chantagem ocasional tramada 


Solo do CD 20 anos ao vivo:
e------------------------
B-3---5---3--------------
G--4---5---4----2-2-4-2--
D---5---7---5-5----------
A------------------------
E------------------------
Página 1 / 1

Letras y titulo
Acordes y artista

restablecer los ajustes
OK