Cifra Club

Viver de Amor

Comunidade Católica Shalom

Tablatura: Versão 2 (guitarra)
Tono: C
E|--6h8--6-----------------------------6h8--6--------------------------------------|
B|----------9--8-----9-8-----------------------9--8-----9-8------------------------|
G|----------------8-------8--8-10----------------------------8-------8--8-10-------|
D|---------------------------------------------------------------------------------|
A|---------------------------------------------------------------------------------|
E|---------------------------------------------------------------------------------|

E|--8--6--8------------------8-8-6-8-----------------------------------------------|
B|-----------8--9-8------------------8-8--9-8--------------------------------------|
G|-------------------8-8-10-10-----------------8-8-8-10----------------------------|
D|---------------------------------------------------------------------------------|
A|---------------------------------------------------------------------------------|
E|---------------------------------------------------------------------------------|

E|---------------------------------------------------------------------------------|
B|-----------11-------11-11--------------------------------------------------------|
G|--12-10-8------8--8-------12-12--8-10-8-10-10-12--------------------15---12---10-|
D|-------------------------------------------------12-12--12--13--13---------------|
A|---------------------------------------------------------------------------------|
E|---------------------------------------------------------------------------------|

E|--8--6--8----------------------8-8-6-8-------------------------------------------|
B|-----------8--8-9-8---------------------8-8-8-6----------------------------------|
G|--------------------8-8--8-10----------------------------------------------------|
D|---------------------------------------------------------------------------------|
A|---------------------------------------------------------------------------------|
E|---------------------------------------------------------------------------------|

E|---------------------------------------------------------------------------------|
B|-----------11-------11-11----------------------------11--------------------------|
G|--12-10-8------8--8-------12-12-12-12-10----12-10-8------8--8--10--8-12-10-8-----|
D|---------------------------------------------------------------------------------|
A|---------------------------------------------------------------------------------|
E|---------------------------------------------------------------------------------|

E|---------------------------------------------------------------------------------|
B|---------11-8-----------11-8---------9-8-----------------------------------------|
G|--8-10-8-------8-8-10-8-------8-10-8--------8-10---------------------------------|
D|-----------------------------------------10--------------------------------------|
A|---------------------------------------------------------------------------------|
E|---------------------------------------------------------------------------------|

E|---------------------------------------------------------------------------------|
B|---------11-8------13-13--11-11-------9-8----------------------------------------|
G|--8-10-8-------8-8--------------10-8----------8-10-------------------------------|
D|------------------------------------------10-------------------------------------|
A|---------------------------------------------------------------------------------|
E|---------------------------------------------------------------------------------|

E|--8--6--8----------------------8-8-6-8-------------------------------------------|
B|-----------8--8-9-8---------------------8-8-8-8-9-8-6----------------------------|
G|--------------------8-8--8-10----------------------------------------------------|
D|---------------------------------------------------------------------------------|
A|---------------------------------------------------------------------------------|
E|---------------------------------------------------------------------------------|

E|---------------------------------------------------------------------------------|
B|-----------11-------11-11----------------------------11--------11-11-------------|
G|--12-10-8------8--8-------12-12-12-12-10----12-10-8------8--8---------12-12-10---|
D|---------------------------------------------------------------------------------|
A|---------------------------------------------------------------------------------|
E|---------------------------------------------------------------------------------|

E|---------------------------------------------------------------------------------|
B|--------------11-8---------------------------------------------------------------|
G|--8---8-----8------10------------------------------------------------------------|
D|----6---8-6----------------------------------------------------------------------|
A|---------------------------------------------------------------------------------|
E|---------------------------------------------------------------------------------|

E|--8--6--8--------------------8-8-6-8---------------------------------------------|
B|-----------8--9-8--------------------8---9-8-------------------------------------|
G|-------------------8-8-10-10------------------8-8-10-10--------------------------|
D|---------------------------------------------------------------------------------|
A|---------------------------------------------------------------------------------|
E|---------------------------------------------------------------------------------|

E|---------------------------------------------------------------------------------|
B|-----------11-------11-11----------------------------11--------11-11-------------|
G|--12-10-8------8--8-------12-12-12-12-10----12-10-8------8--8---------12-12-10---|
D|---------------------------------------------------------------------------------|
A|---------------------------------------------------------------------------------|
E|---------------------------------------------------------------------------------|

E|---------------------------------------------------------------------------------|
B|--------------11-8---11----------------------------------------------------------|
G|--8---8-----8--------------------------------------------------------------------|
D|----6---8-6----------------------------------------------------------------------|
A|---------------------------------------------------------------------------------|
E|---------------------------------------------------------------------------------|

E|---------------------------------------------------------------------------------|
B|---------11-8-----------11-8---------9-8-----------------------------------------|
G|--8-10-8-------8-8-10-8-------8-10-8--------8-10---------------------------------|
D|-----------------------------------------10--------------------------------------|
A|---------------------------------------------------------------------------------|
E|---------------------------------------------------------------------------------|

E|---------------------------------------------------------------------------------|
B|---------11-8------13-13--11-11-------9-8----------------------------------------|
G|--8-10-8-------8-8--------------10-8----------8-10-------------------------------|
D|------------------------------------------10-------------------------------------|
A|---------------------------------------------------------------------------------|
E|---------------------------------------------------------------------------------|

E|--8-8-6---------------8-8-6------------------------------------------------------|
B|--------8-8--9-8------------8-8--9-8---------------------------------------------|
G|-----------------8-------------------8-------------------------------------------|
D|-------------------8-------------------8-----------------------------------------|
A|---------------------------------------------------------------------------------|
E|---------------------------------------------------------------------------------|

Acordes para:
    Colaboración y revision:
    • Vinícius Sousa

    0 comentarios

    mostrar más comentarios

    ¿Conseguiste tocar?

    1 tocaron 0 aún no

    ¡Graba un vídeo tocando Viver de Amor y envianoslo!

    00:00 / 00:00
    outros vídeos desta música
    repetir qualidade Automático
    Outros vídeos desta música
    00:00 / 00:00
    Automático
    OK