Dias Atrás

CPM 22

Composição de: Ricardo Galano
tono: B
Introdução: B5  F#5  E5  F#5
            B5  F#5  E5  F#5

E|-----------------------------------------------------|
B|-12-12-12-11-11-11-11-11-12-12-12-11-11-11-11-11-----|
G|-11-11-11-11-11-11-11-11-11-11-11-11-11-11-11-11-----|   (4x)
D|-----------------------------------------------------|
A|-----------------------------------------------------|
E|-----------------------------------------------------|

E|-----------------------------------------------------|
B|-14-14-14-12-12-12-12-12-14-14-14-12-12-12-12-12-----|
G|-11-11-11-11-11-11-11-11-11-11-11-11-11-11-11-11-----|   (2x)
D|-----------------------------------------------------|
A|-----------------------------------------------------|
E|-----------------------------------------------------|

E|-----------------------------------------------------|
B|-12-12-12-11-11-11-11-11-12-12-12-11-11-11-11-11-----|
G|-11-11-11-11-11-11-11-11-11-11-11-11-11-11-11-11-----|
D|-----------------------------------------------------|
A|-----------------------------------------------------|
E|-----------------------------------------------------|

E|-----------------------------------------------------|
B|-12-12-12-11-11-11-11-11-12-12-12-11-11-11-11--------|
G|-11-11-11-11-11-11-11-11-11-11-11-11-11-11-11-11\4~~-|
D|-----------------------------------------------------|
A|-----------------------------------------------------|
E|-----------------------------------------------------|


Primeira Parte:

E|---2---------2----------------------------|
B|-0---------0------------------------------|
G|--------1---------------------------------|   (6x)
D|------------------------------------------|
A|------------------------------------------|
E|------------------------------------------|

E|----2---------2---------------------------|
B|------------------------------------------|
G|-4---------3------------------------------|   (3x)
D|---------4--------------------------------|
A|------------------------------------------|
E|------------------------------------------|

( E5  G#m7  E5  G#m7 )

 E5    G#m7
Nunca mais
   E5            G#m7
Espero te encontrar
     E5  G#m7
Por tudo
       E5           G#m7  E5
Que você me fez passar
        G#m7          E5
Tantos dias sem entender
     G#m7        E5  G#m7
Esperando por você
                F#5  E5
Que não vai voltar


Refrão:

E|-----------------------------------------------------|
B|-12-12-12-12-12-12-12-12-12-12-12-12-12-12-12-12-----|
G|-11-11-11-11-11-11-11-11-11-11-11-11-11-11-11-11-----|
D|-----------------------------------------------------|
A|-----------------------------------------------------|
E|-----------------------------------------------------|

E|-----------------------------------------------------|
B|-12-12-12-12-12-12-12-12-11-11-11-12-12-12-12-12-----|
G|-11-11-11-11-11-11-11-11-11-11-11-11-11-11-11-11-----|   (3x)
D|-----------------------------------------------------|
A|-----------------------------------------------------|
E|-----------------------------------------------------|

E|-----------------------------------------------------|
B|-14-14-14-12-12-12-12-12-14-14-14-12-12-12-12-12-----|
G|-11-11-11-11-11-11-11-11-11-11-11-11-11-11-11-11-----|   (2x)
D|-----------------------------------------------------|
A|-----------------------------------------------------|
E|-----------------------------------------------------|

E|-----------------------------------------------------|
B|-12-12-12-11-11-11-11-11-12-12-12-11-11-11-11-11-----|
G|-11-11-11-11-11-11-11-11-11-11-11-11-11-11-11-11-----|
D|-----------------------------------------------------|
A|-----------------------------------------------------|
E|-----------------------------------------------------|

E|-----------------------------------------------------|
B|-12-12-12-12-12-12-12-12-12-12-12-12-12-12-12--------|
G|-11-11-11-11-11-11-11-11-11-11-11-11-11-11-11-11\9~~-|
D|-----------------------------------------------------|
A|-----------------------------------------------------|
E|-----------------------------------------------------|

B5         F#5
   Dias atrás
    E5
Pensava em você
    F#5         B5
Não era assim, mas
           F#5
Olho pra trás
     E5
Mas penso e sigo em frente
     F#5
Pra nunca mais

Viver assim


Segunda Parte:

( E5  G#m7  E5  G#m7 )

 E5    G#m7
Tanto faz
E5           G#m7
O que vai rolar
     E5   G#m7
Mas nunca
   E5          G#m7  E5
Espero voltar lá
        G#m7          E5
Sempre tento me esconder
      G#m7         E5  G#m7
Para deixar de te ver
               F#5  E5
Acho que é melhor


Refrão:

B5         F#5
   Dias atrás
    E5
Pensava em você
    F#5      B5
Não é assim mais
           F#5
Olho pra trás
     E5
Mas penso e sigo em frente
     F#5
Pra nunca mais

Viver assim


Solo: G#5  E5  G#5  E5  G#5  E5  F#5  E5
      G#5  E5  G#5  E5  G#5
      F#5  E5  F#5  E5

E|-----------------------------------------------------|
B|-----------------------------------------------------|
G|-----------------------------------------------------|   (2x)
D|-4h6--6--6-6-6-4h6--6-6-6-6-6-6-6--------------------|
A|-----------------------------------------------------|
E|-----------------------------------------------------|

E|-----------------------------------------------------|
B|-----------------------------------------------------|
G|-----------4---4--4-4-4-4-4-6-4-6b8---b8---b8r6--6--4|
D|-4h6--6--6---6---------------------------------------|
A|-----------------------------------------------------|
E|-----------------------------------------------------|

E|-----------------------------------------------------|
B|-----------------------------------------------------|
G|-4-4-4-4-4-4-4---------------------------------------|
D|-----------------------------------------------------|
A|-----------------------------------------------------|
E|-----------------------------------------------------|

E|-----------------------------------------------------|
B|-/7--7--7-7-7-7/9--9-9-9-9-9-9-9-9/11--11--11-11-11--|
G|-----------------------------------------------------|
D|-----------------------------------------------------|
A|-----------------------------------------------------|
E|-----------------------------------------------------|

E|-----------------------------------------------------|
B|-11/12--12-12-12-12-11-9--9h11--11--11--9\7--7-------|
G|-----------------------------------------------------|
D|-----------------------------------------------------|
A|-----------------------------------------------------|
E|-----------------------------------------------------|

E|-----------------------------------------------------|
B|-7-7-7-7-7-7\----------------------------------------|
G|-----------------------------------------------------|
D|-----------------------------------------------------|
A|-----------------------------------------------------|
E|-----------------------------------------------------|

E|-----------------------------------------------------|
B|-/7--7--7-7-7-7----5-5-5 5-5-5-5\--------------------|
G|-----------------------------------------------------|
D|-----------------------------------------------------|
A|-----------------------------------------------------|
E|-----------------------------------------------------|

E|-----------------------------------------------------|
B|-/7--7--7-7-7-7----5-5-5-----------------------------|
G|-----------------------------------------------------|
D|-------------------------x-x-x-x---------------------|
A|-------------------------x-x-x-x---------------------|
E|-------------------------x-x-x-x---------------------|


Refrão:

B5         F#5
   Dias atrás
    E5
Pensava em você
    F#5         B5
Não era assim, mas
           F#5
Olho pra trás
     E5
Mas penso e sigo em frente
     F#5
Pra nunca mais


Final:

         B5
Viver assim (viver assim)
         F#5
Viver assim (viver assim)
         E5
Viver assim
     F#5
Pra nunca mais
         B5
Viver assim (viver assim)
         F#5
Viver assim (viver assim)
         E5
Viver assim
     F#5
Pra nunca mais viver assim

( E5  G#m7 )  (4x)

( E5 )
Página 1 / 1

Letras y titulo
Acordes y artista

restablecer los ajustes
OK