Decorated

Crazy Town

Composición de: Crazy Town
darkhorse decorated
                     intro/pre-chorus
g------------------------------------------------------|
d------------------------------------------------------|
a---2----2----3---3---3~~-----4----4----5----5-----5~~-|
d2-2-2-2--2-2-2-2--2-2----2-2--2-2---2-2--2-2--2-2-----|


verses 2-2
(they sometines they do it 3x listen closly)


chorus

g----------------------------------------------|
d----------------------------------------------|
a----------------------4-4-4-4-4-4-4-4-5-5-5-5-|
d2-2-2-2-2-2-2-2-0-0-0-------------------------|

there it is this is a fun and easy song 2 * fun!!!!!
Página 1 / 1

Letras y titulo
Acordes y artista

restablecer los ajustes
OK