Song That Jane Likes

Dave Matthews Band

Composición de: Mark Roebuck
Intro:
"And In Plays To...."
G----------5---5------------------|
D--0-----5---3---3--5-------------|
A------3---------------3-3--------|
E--------------------------5---3--|

"Hey"
G---------|
D---------|
A---------|
E--3/13\3-|

Verse: (There are a couple lil things in the verse)
G----------------------------------11/12\11--|
D--------------------------------------------|
A------X-3-2-0-0-0------------5-5------------|
E--3-3--------------3\1--1-1-----------------|

Next..
G---------------------------------------|
D---------------------------------------|
A------X-3-2-0-0-0----------------------|
E--3-3--------------3\1--1-1--1/3--1h3--|

Then
G----------------------------------------|
D------------------------------------7---|
A------X-3-2-0-0-0------------3/5--5---5-|
E--3-3--------------3\1--1-1-------------|

finally this again
G---------------------------------------|
D---------------------------------------|
A------X-3-2-0-0-0----------------------|
E--3-3--------------3\1--1-1--1/3--1h3--|

Chorus: (Im not sure on this part)
G----------------------|
D----------------------| X2
A----------------------|
E--0-0--2-2--3-3--5-5--|

then...
G-------------------------|
D--7--9-10---10--10---10--|
A----------8----8---8-----|
E-------------------------|

Back to verse
Then Chorus
then verse
then you go back to Intro...

outro:
G----------------------------------------------|
D---------x-x--5-4--2-2-2----------------------|
A--3--5--------------------x--4/5-3-2----------|
E--------------------------------------2--x-3--|

Thats all, its a easy song and a fun Jam.
If anyone has any questions or comments plaese 
e-mail me at... HappyC* 

            ~~Teddy
Página 1 / 1

Letras y titulo
Acordes y artista

restablecer los ajustes
OK