Smells Like Teen Spirit

David Garrett

Composición de: Nirvana
tono: Db
Intro 4x: F5 Bb5 G#5 C#5

Riff 1:
       (6x)                          (4x)
E|---------|-----------------------------|
B|-----6---|-----6-----6-----6----6---6--|
G|--5------|--5-----5-----5-----5---5----|
D|---------|-----------------------------|
A|---------|-----------------------------|
E|---------|-----------------------------|

Riff 2:
    F5  E5 F5 F#5    F5  E5 F5 Bb5 G#5
E|---------------------------------------|
B|---------------------------------------|
G|---------------3b----------------------|    (2x)
D|---------------------------------------|
A|--3-3-2-3-4-4------3-3-2-3--8-8-6-6----|
E|--1-1-0-1-2-2------1-1-0-1--6-6-4-4----|

(Riff 1)
( F5 Bb5 G#5 C#5 )
Load up on guns and bring your friends
It's fun to lose and to pretend
She's over bored and self assured
Oh, no, I know a dirty word

Hello, hello, hello, how low
Hello, hello, hello, how low
Hello, hello, hello, how low
Hello, hello, hello...

Refrão:
          F5        Bb5
With the lights out
           G#5       C#5
It's less dangerous
        F5      Bb5     G#5    C#5
Here we are now   entertain us
         F5    Bb5        G#5     C#5
I feel stupid     and contagious
        F5      Bb5     G#5    C#5
Here we are now   entertain us
     F5   Bb5     G#5   C#5
A mulatto,  an albino
       F5  Bb5       G#5   C#5
A mosquito     my libido

      (Riff 2)
      F5  E5  F5  F#5    F5  E5  F5  Bb5  G#5  (2x)
Yeah!                 Ya

(Riff 1)
( F5 Bb5 G#5 C#5 )
I'm worse at what I do best
And for this gift I feel blessed
Our little group has always been
And always will until the end

Hello, hello, hello, how low...

Refrão:
          F5        Bb5
With the lights out
           G#5       C#5
It's less dangerous
        F5      Bb5     G#5    C#5
Here we are now   entertain us
         F5    Bb5        G#5     C#5
I feel stupid     and contagious
        F5      Bb5     G#5    C#5
Here we are now   entertain us
     F5   Bb5     G#5   C#5
A mulatto,  an albino
       F5  Bb5       G#5   C#5
A mosquito     my libido

Solo:
E|---------------------------------------------------
B|---4-6\----4-4b6r4-2-1-2-1-------------------------
G|-5-------1------------------3--1-3-3b5r3-1---------
D|--------------------------------------------5------
A|---------------------------------------------------
E|---------------------------------------------------

E|---------------------------------------------------
B|---------------------------------------------------
G|---------------------------------------------------
D|-6-5--6-5--6-5--6p5-5p3----------------------------
A|---------------------------------------------------
E|---------------------------------------------------

(Riff 1)
( F5  Bb5  G#5  C#5 )
And I forget just why I taste
Oh yeah, I guess it makes me smile
I found it hard, it's hard to find
Oh well, whatever, nevermind

Hello, hello, hello, how low...

Refrão:
          F5        Bb5
With the lights out
           G#5       C#5
It's less dangerous
        F5      Bb5     G#5    C#5
Here we are now   entertain us
         F5    Bb5        G#5     C#5
I feel stupid     and contagious
        F5      Bb5     G#5    C#5
Here we are now   entertain us
     F5   Bb5     G#5   C#5
A mulatto,  an albino
       F5  Bb5       G#5   C#5
A mosquito     my libido

A denial (9x)
Página 1 / 1

Letras y titulo
Acordes y artista

restablecer los ajustes
OK