Gypsy Kiss

Deep Purple

Composição: Ian Gillan / Ian Paice / Jon Lord / Ritchie Blackmore / Roger Glover
Tom: C
#


~~~~~~~~~~~~~~~~~~~~~~~~~~~~~~~~~~~~~~~~~~~~~~~~~~~~~~~~~

Here is the main riff of the solo :  (played twice)

E|---------------------------------------------------------------------|
B|---------------------------------------------------------------------|
G|---------------------------------------------------------------------|
D|---------------11--12--11-------11^h12h^11--10-----------------------|
A|--10--12--13---------------13-------------------13--12--10--12--13---|
E|---------------------------------------------------------------------|

                                                  Slide
E|---------------------------------------------------------------------|
B|------10--11--10-----------------------------------------------------|
G|--12--------------12--10---------------------------------------------|
D|--------------------------13--12--12^h14h^12--10--9--10--------------|
A|---------------------------------------------------------------------|
E|---------------------------------------------------------------------|

E|---------------------------------------------------------------------|
B|---------------------------------------------15--13------------------|
G|-----------------------------------------14----------15--14--12------|
D|------------7^h8-----10^h12------12--15------------------------------|
A|--9--12--9--------9----------12--------------------------------------|
E|---------------------------------------------------------------------|

E|---------------------------------------------------------------------|
B|---------------------------------------------------------------------|
G|--12^h14h^12--11--10-------------------------------------------------|
D|-----------------------12--10----------------------------------------|
A|-------------------------------13--10--------------------------------|
E|---------------------------------------------------------------------|


Listen to the song for the timing.
As I´m not sure about the whole thing corrections are welcome !!!


Viel Spass !!!

          Daniel
Página 1 / 1

Letras y titulo
Acordes y artista

restablecer los ajustes
OK